  0
SECTION
  2
HEADER
  9
$ACADVER
  1
AC1015
  9
$ACADMAINTVER
 70
     6
  9
$DWGCODEPAGE
  3
ANSI_1256
  9
$INSBASE
 10
0.0
 20
0.0
 30
0.0
  9
$EXTMIN
 10
0.0
 20
0.0
 30
0.0
  9
$EXTMAX
 10
180.0
 20
90.0
 30
0.0
  9
$LIMMIN
 10
0.0
 20
0.0
  9
$LIMMAX
 10
420.0
 20
297.0
  9
$ORTHOMODE
 70
     0
  9
$REGENMODE
 70
     1
  9
$FILLMODE
 70
     1
  9
$QTEXTMODE
 70
     0
  9
$MIRRTEXT
 70
     1
  9
$LTSCALE
 40
1.0
  9
$ATTMODE
 70
     1
  9
$TEXTSIZE
 40
3.175
  9
$TRACEWID
 40
1.0
  9
$TEXTSTYLE
  7
STANDARD
  9
$CLAYER
  8
0
  9
$CELTYPE
  6
ByLayer
  9
$CECOLOR
 62
   256
  9
$CELTSCALE
 40
1.0
  9
$DISPSILH
 70
     0
  9
$DIMSCALE
 40
1.0
  9
$DIMASZ
 40
3.302
  9
$DIMEXO
 40
1.27
  9
$DIMDLI
 40
3.75
  9
$DIMRND
 40
0.0
  9
$DIMDLE
 40
0.0
  9
$DIMEXE
 40
3.175
  9
$DIMTP
 40
0.0
  9
$DIMTM
 40
0.0
  9
$DIMTXT
 40
3.175
  9
$DIMCEN
 40
2.5
  9
$DIMTSZ
 40
0.0
  9
$DIMTOL
 70
     0
  9
$DIMLIM
 70
     0
  9
$DIMTIH
 70
     1
  9
$DIMTOH
 70
     1
  9
$DIMSE1
 70
     0
  9
$DIMSE2
 70
     0
  9
$DIMTAD
 70
     0
  9
$DIMZIN
 70
     0
  9
$DIMBLK
  1

  9
$DIMASO
 70
     1
  9
$DIMSHO
 70
     1
  9
$DIMPOST
  1

  9
$DIMAPOST
  1

  9
$DIMALT
 70
     0
  9
$DIMALTD
 70
     3
  9
$DIMALTF
 40
0.0393700787
  9
$DIMLFAC
 40
1.0
  9
$DIMTOFL
 70
     1
  9
$DIMTVP
 40
0.0
  9
$DIMTIX
 70
     0
  9
$DIMSOXD
 70
     0
  9
$DIMSAH
 70
     0
  9
$DIMBLK1
  1

  9
$DIMBLK2
  1

  9
$DIMSTYLE
  2
ISO-25
  9
$DIMCLRD
 70
     0
  9
$DIMCLRE
 70
     0
  9
$DIMCLRT
 70
     0
  9
$DIMTFAC
 40
1.0
  9
$DIMGAP
 40
1.524
  9
$DIMJUST
 70
     0
  9
$DIMSD1
 70
     0
  9
$DIMSD2
 70
     0
  9
$DIMTOLJ
 70
     0
  9
$DIMTZIN
 70
     0
  9
$DIMALTZ
 70
     0
  9
$DIMALTTZ
 70
     0
  9
$DIMUPT
 70
     0
  9
$DIMDEC
 70
     2
  9
$DIMTDEC
 70
     2
  9
$DIMALTU
 70
     2
  9
$DIMALTTD
 70
     3
  9
$DIMTXSTY
  7
STANDARD
  9
$DIMAUNIT
 70
     0
  9
$DIMADEC
 70
     2
  9
$DIMALTRND
 40
0.0
  9
$DIMAZIN
 70
     0
  9
$DIMDSEP
 70
    44
  9
$DIMATFIT
 70
     3
  9
$DIMFRAC
 70
     0
  9
$DIMLDRBLK
  1

  9
$DIMLUNIT
 70
     2
  9
$DIMLWD
 70
    -2
  9
$DIMLWE
 70
    -2
  9
$DIMTMOVE
 70
     0
  9
$LUNITS
 70
     2
  9
$LUPREC
 70
     2
  9
$SKETCHINC
 40
1.0
  9
$FILLETRAD
 40
10.0
  9
$AUNITS
 70
     0
  9
$AUPREC
 70
     2
  9
$MENU
  1
.
  9
$ELEVATION
 40
0.0
  9
$PELEVATION
 40
0.0
  9
$THICKNESS
 40
0.0
  9
$LIMCHECK
 70
     0
  9
$CHAMFERA
 40
0.0
  9
$CHAMFERB
 40
0.0
  9
$CHAMFERC
 40
0.0
  9
$CHAMFERD
 40
0.0
  9
$SKPOLY
 70
     0
  9
$TDCREATE
 40
2457978.853464467
  9
$TDUCREATE
 40
2457978.770131134
  9
$TDUPDATE
 40
2457978.853489433
  9
$TDUUPDATE
 40
2457978.770156099
  9
$TDINDWG
 40
0.0000000116
  9
$TDUSRTIMER
 40
0.0000000116
  9
$USRTIMER
 70
     1
  9
$ANGBASE
 50
0.0
  9
$ANGDIR
 70
     0
  9
$PDMODE
 70
     0
  9
$PDSIZE
 40
-1.0
  9
$PLINEWID
 40
0.0
  9
$SPLFRAME
 70
     0
  9
$SPLINETYPE
 70
     6
  9
$SPLINESEGS
 70
     8
  9
$HANDSEED
  5
443
  9
$SURFTAB1
 70
     6
  9
$SURFTAB2
 70
     6
  9
$SURFTYPE
 70
     6
  9
$SURFU
 70
     6
  9
$SURFV
 70
     6
  9
$UCSBASE
  2

  9
$UCSNAME
  2

  9
$UCSORG
 10
0.0
 20
0.0
 30
0.0
  9
$UCSXDIR
 10
1.0
 20
0.0
 30
0.0
  9
$UCSYDIR
 10
0.0
 20
1.0
 30
0.0
  9
$UCSORTHOREF
  2

  9
$UCSORTHOVIEW
 70
     0
  9
$UCSORGTOP
 10
0.0
 20
0.0
 30
0.0
  9
$UCSORGBOTTOM
 10
0.0
 20
0.0
 30
0.0
  9
$UCSORGLEFT
 10
0.0
 20
0.0
 30
0.0
  9
$UCSORGRIGHT
 10
0.0
 20
0.0
 30
0.0
  9
$UCSORGFRONT
 10
0.0
 20
0.0
 30
0.0
  9
$UCSORGBACK
 10
0.0
 20
0.0
 30
0.0
  9
$PUCSBASE
  2

  9
$PUCSNAME
  2

  9
$PUCSORG
 10
0.0
 20
0.0
 30
0.0
  9
$PUCSXDIR
 10
1.0
 20
0.0
 30
0.0
  9
$PUCSYDIR
 10
0.0
 20
1.0
 30
0.0
  9
$PUCSORTHOREF
  2

  9
$PUCSORTHOVIEW
 70
     0
  9
$PUCSORGTOP
 10
0.0
 20
0.0
 30
0.0
  9
$PUCSORGBOTTOM
 10
0.0
 20
0.0
 30
0.0
  9
$PUCSORGLEFT
 10
0.0
 20
0.0
 30
0.0
  9
$PUCSORGRIGHT
 10
0.0
 20
0.0
 30
0.0
  9
$PUCSORGFRONT
 10
0.0
 20
0.0
 30
0.0
  9
$PUCSORGBACK
 10
0.0
 20
0.0
 30
0.0
  9
$USERI1
 70
     0
  9
$USERI2
 70
     0
  9
$USERI3
 70
     0
  9
$USERI4
 70
     0
  9
$USERI5
 70
     0
  9
$USERR1
 40
0.0
  9
$USERR2
 40
0.0
  9
$USERR3
 40
0.0
  9
$USERR4
 40
0.0
  9
$USERR5
 40
0.0
  9
$WORLDVIEW
 70
     1
  9
$SHADEDGE
 70
     3
  9
$SHADEDIF
 70
    70
  9
$TILEMODE
 70
     1
  9
$MAXACTVP
 70
    64
  9
$PINSBASE
 10
0.0
 20
0.0
 30
0.0
  9
$PLIMCHECK
 70
     0
  9
$PEXTMIN
 10
1.0000000000E+20
 20
1.0000000000E+20
 30
1.0000000000E+20
  9
$PEXTMAX
 10
-1.0000000000E+20
 20
-1.0000000000E+20
 30
-1.0000000000E+20
  9
$PLIMMIN
 10
0.0
 20
0.0
  9
$PLIMMAX
 10
420.0
 20
297.0
  9
$UNITMODE
 70
     0
  9
$VISRETAIN
 70
     1
  9
$PLINEGEN
 70
     0
  9
$PSLTSCALE
 70
     1
  9
$TREEDEPTH
 70
  3020
  9
$CMLSTYLE
  2
Standard
  9
$CMLJUST
 70
     0
  9
$CMLSCALE
 40
20.0
  9
$PROXYGRAPHICS
 70
     1
  9
$MEASUREMENT
 70
     1
  9
$CELWEIGHT
370
    -1
  9
$ENDCAPS
280
     0
  9
$JOINSTYLE
280
     0
  9
$LWDISPLAY
290
     1
  9
$INSUNITS
 70
     4
  9
$HYPERLINKBASE
  1

  9
$STYLESHEET
  1

  9
$XEDIT
290
     1
  9
$CEPSNTYPE
380
     0
  9
$PSTYLEMODE
290
     1
  9
$FINGERPRINTGUID
  2
{4DED4806-D64D-4518-ACAA-99E172EDA749}
  9
$VERSIONGUID
  2
{FAEB1C32-E019-11D5-929B-00C0DF256EC4}
  9
$EXTNAMES
290
     1
  9
$PSVPSCALE
 40
0.0
  9
$OLESTARTUP
290
     0
  0
ENDSEC
  0
SECTION
  2
CLASSES
  0
CLASS
  1
ACDBDICTIONARYWDFLT
  2
AcDbDictionaryWithDefault
  3
ObjectDBX Classes
 90
        0
280
     0
281
     0
  0
CLASS
  1
VISUALSTYLE
  2
AcDbVisualStyle
  3
ObjectDBX Classes
 90
     4095
280
     0
281
     0
  0
CLASS
  1
MATERIAL
  2
AcDbMaterial
  3
ObjectDBX Classes
 90
     1153
280
     0
281
     0
  0
CLASS
  1
SCALE
  2
AcDbScale
  3
ObjectDBX Classes
 90
     1153
280
     0
281
     0
  0
CLASS
  1
TABLESTYLE
  2
AcDbTableStyle
  3
ObjectDBX Classes
 90
     4095
280
     0
281
     0
  0
CLASS
  1
MLEADERSTYLE
  2
AcDbMLeaderStyle
  3
ACDB_MLEADERSTYLE_CLASS
 90
     4095
280
     0
281
     0
  0
CLASS
  1
SUN
  2
AcDbSun
  3
SCENEOE
 90
     1153
280
     0
281
     0
  0
CLASS
  1
ACDBPLACEHOLDER
  2
AcDbPlaceHolder
  3
ObjectDBX Classes
 90
        0
280
     0
281
     0
  0
CLASS
  1
LAYOUT
  2
AcDbLayout
  3
ObjectDBX Classes
 90
        0
280
     0
281
     0
  0
ENDSEC
  0
SECTION
  2
TABLES
  0
TABLE
  2
VPORT
  5
8
330
0
100
AcDbSymbolTable
 70
     1
  0
VPORT
  5
29
330
8
100
AcDbSymbolTableRecord
100
AcDbViewportTableRecord
  2
*Active
 70
     0
 10
0.0
 20
0.0
 11
1.0
 21
1.0
 12
90.0
 22
45.0
 13
0.0
 23
0.0
 14
10.0
 24
10.0
 15
10.0
 25
10.0
 16
0.0
 26
0.0
 36
1.0
 17
0.0
 27
0.0
 37
0.0
 40
91.8
 41
2.0
 42
50.0
 43
0.0
 44
0.0
 50
0.0
 51
0.0
 71
     0
 72
   100
 73
     1
 74
     3
 75
     0
 76
     0
 77
     0
 78
     0
281
     0
 65
     1
110
0.0
120
0.0
130
0.0
111
1.0
121
0.0
131
0.0
112
0.0
122
1.0
132
0.0
 79
     0
146
0.0
  0
ENDTAB
  0
TABLE
  2
LTYPE
  5
5
330
0
100
AcDbSymbolTable
 70
     6
  0
LTYPE
  5
14
330
5
100
AcDbSymbolTableRecord
100
AcDbLinetypeTableRecord
  2
ByBlock
 70
     0
  3

 72
    65
 73
     0
 40
0.0
  0
LTYPE
  5
15
330
5
100
AcDbSymbolTableRecord
100
AcDbLinetypeTableRecord
  2
ByLayer
 70
     0
  3

 72
    65
 73
     0
 40
0.0
  0
LTYPE
  5
16
330
5
100
AcDbSymbolTableRecord
100
AcDbLinetypeTableRecord
  2
Continuous
 70
     0
  3
Solid line
 72
    65
 73
     0
 40
0.0
  0
LTYPE
  5
6E
330
5
100
AcDbSymbolTableRecord
100
AcDbLinetypeTableRecord
  2
HIDDEN
 70
     0
  3
Hidden __ __ __ __ __ __ __ __ __ __ __ __ __ __
 72
    65
 73
     2
 40
1.905
 49
1.27
 74
     0
 49
-0.635
 74
     0
  0
LTYPE
  5
6F
330
5
100
AcDbSymbolTableRecord
100
AcDbLinetypeTableRecord
  2
PHANTOM
 70
     0
  3
Phantom ______  __  __  ______  __  __  ______
 72
    65
 73
     6
 40
12.7
 49
6.35
 74
     0
 49
-1.27
 74
     0
 49
1.27
 74
     0
 49
-1.27
 74
     0
 49
1.27
 74
     0
 49
-1.27
 74
     0
  0
LTYPE
  5
70
330
5
100
AcDbSymbolTableRecord
100
AcDbLinetypeTableRecord
  2
CENTER
 70
     0
  3
Center ____ _ ____ _ ____ _ ____ _ ____ _ ____
 72
    65
 73
     4
 40
10.16
 49
6.35
 74
     0
 49
-1.27
 74
     0
 49
1.27
 74
     0
 49
-1.27
 74
     0
  0
LTYPE
  5
71
330
5
100
AcDbSymbolTableRecord
100
AcDbLinetypeTableRecord
  2
CENTERX2
 70
     0
  3
Center (2x) ________  __  ________  __  _____
 72
    65
 73
     4
 40
20.32
 49
12.7
 74
     0
 49
-2.54
 74
     0
 49
2.54
 74
     0
 49
-2.54
 74
     0
  0
LTYPE
  5
72
330
5
100
AcDbSymbolTableRecord
100
AcDbLinetypeTableRecord
  2
DOT2
 70
     0
  3
Dot (.5x) ........................................
 72
    65
 73
     2
 40
0.635
 49
0.0
 74
     0
 49
-0.635
 74
     0
  0
ENDTAB
  0
TABLE
  2
LAYER
  5
2
330
0
100
AcDbSymbolTable
 70
     1
  0
LAYER
  5
10
330
2
100
AcDbSymbolTableRecord
100
AcDbLayerTableRecord
  2
0
 70
     0
 62
     7
  6
Continuous
370
    -3
390
F
  0
ENDTAB
  0
TABLE
  2
STYLE
  5
3
330
0
100
AcDbSymbolTable
 70
     1
  0
STYLE
  5
11
330
3
100
AcDbSymbolTableRecord
100
AcDbTextStyleTableRecord
  2
STANDARD
 70
     0
 40
0.0
 41
1.0
 50
0.0
 71
     0
 42
3.175
  3
GOTHIC.TTF
  4

1001
ACAD
1000
CENTURY GOTHIC
1071
       34
  0
ENDTAB
  0
TABLE
  2
VIEW
  5
6
330
0
100
AcDbSymbolTable
 70
     0
  0
ENDTAB
  0
TABLE
  2
UCS
  5
7
330
0
100
AcDbSymbolTable
 70
     0
  0
ENDTAB
  0
TABLE
  2
APPID
  5
9
330
0
100
AcDbSymbolTable
 70
     1
  0
APPID
  5
12
330
9
100
AcDbSymbolTableRecord
100
AcDbRegAppTableRecord
  2
ACAD
 70
     0
  0
ENDTAB
  0
TABLE
  2
DIMSTYLE
  5
A
330
0
100
AcDbSymbolTable
 70
     1
100
AcDbDimStyleTable
  0
DIMSTYLE
105
27
330
A
100
AcDbSymbolTableRecord
100
AcDbDimStyleTableRecord
  2
ISO-25
 70
     0
 41
2.5
 42
0.625
 43
3.75
 44
1.25
 73
     0
 74
     0
 77
     1
 78
     8
140
2.5
141
2.5
143
0.0393700787
147
0.625
171
     3
172
     1
178
     0
271
     2
272
     2
274
     3
278
    44
283
     0
284
     8
340
11
  0
ENDTAB
  0
TABLE
  2
BLOCK_RECORD
  5
1
330
0
100
AcDbSymbolTable
 70
     1
  0
BLOCK_RECORD
  5
1F
330
1
100
AcDbSymbolTableRecord
100
AcDbBlockTableRecord
  2
*Model_Space
340
22
  0
BLOCK_RECORD
  5
1B
330
1
100
AcDbSymbolTableRecord
100
AcDbBlockTableRecord
  2
*Paper_Space
340
1E
  0
BLOCK_RECORD
  5
23
330
1
100
AcDbSymbolTableRecord
100
AcDbBlockTableRecord
  2
*Paper_Space0
340
26
  0
ENDTAB
  0
ENDSEC
  0
SECTION
  2
BLOCKS
  0
BLOCK
  5
20
330
1F
100
AcDbEntity
  8
0
100
AcDbBlockBegin
  2
*Model_Space
 70
     0
 10
0.0
 20
0.0
 30
0.0
  3
*Model_Space
  1

  0
ENDBLK
  5
21
330
1F
100
AcDbEntity
  8
0
100
AcDbBlockEnd
  0
BLOCK
  5
1C
330
1B
100
AcDbEntity
 67
     1
  8
0
100
AcDbBlockBegin
  2
*Paper_Space
 70
     0
 10
0.0
 20
0.0
 30
0.0
  3
*Paper_Space
  1

  0
ENDBLK
  5
1D
330
1B
100
AcDbEntity
 67
     1
  8
0
100
AcDbBlockEnd
  0
BLOCK
  5
24
330
23
100
AcDbEntity
  8
0
100
AcDbBlockBegin
  2
*Paper_Space0
 70
     0
 10
0.0
 20
0.0
 30
0.0
  3
*Paper_Space0
  1

  0
ENDBLK
  5
25
330
23
100
AcDbEntity
  8
0
100
AcDbBlockEnd
  0
ENDSEC
  0
SECTION
  2
ENTITIES
  0
LINE
  5
73
330
1F
100
AcDbEntity
  8
0
  6
Continuous
 62
     7
370
    25
100
AcDbLine
 10
58.3592931032
 20
48.0458348992
 30
0.0
 11
59.2376334525
 21
48.0458348992
 31
0.0
  0
LINE
  5
74
330
1F
100
AcDbEntity
  8
0
  6
Continuous
 62
     7
370
    25
100
AcDbLine
 10
58.3592931032
 20
48.0458348992
 30
0.0
 11
58.3592931032
 21
41.9541651008
 31
0.0
  0
LINE
  5
75
330
1F
100
AcDbEntity
  8
0
  6
Continuous
 62
     7
370
    25
100
AcDbLine
 10
58.3592931032
 20
41.9541651008
 30
0.0
 11
59.2376334525
 21
41.9541651008
 31
0.0
  0
LINE
  5
76
330
1F
100
AcDbEntity
  8
0
  6
Continuous
 62
     7
370
    25
100
AcDbLine
 10
59.2376334525
 20
41.9541651008
 30
0.0
 11
59.2376334525
 21
23.5957199962
 31
0.0
  0
LINE
  5
77
330
1F
100
AcDbEntity
  8
0
  6
Continuous
 62
     7
370
    25
100
AcDbLine
 10
59.2376334525
 20
23.5957199962
 30
0.0
 11
60.3272944619
 21
22.5060589868
 31
0.0
  0
LINE
  5
78
330
1F
100
AcDbEntity
  8
0
  6
Continuous
 62
     7
370
    25
100
AcDbLine
 10
60.3272944619
 20
22.5060589868
 30
0.0
 11
59.2376334525
 21
21.4163979774
 31
0.0
  0
LINE
  5
79
330
1F
100
AcDbEntity
  8
0
  6
Continuous
 62
     7
370
    25
100
AcDbLine
 10
59.2376334525
 20
21.4163979774
 30
0.0
 11
59.2376334525
 21
16.3653255805
 31
0.0
  0
LINE
  5
7A
330
1F
100
AcDbEntity
  8
0
  6
Continuous
 62
     7
370
    25
100
AcDbLine
 10
59.2376334525
 20
16.3653255805
 30
0.0
 11
54.2239634446
 21
11.3516555726
 31
0.0
  0
LINE
  5
7B
330
1F
100
AcDbEntity
  8
0
  6
Continuous
 62
     7
370
    25
100
AcDbLine
 10
54.2239634446
 20
11.3516555726
 30
0.0
 11
54.2239634446
 21
3.968810038
 31
0.0
  0
LINE
  5
7C
330
1F
100
AcDbEntity
  8
0
  6
Continuous
 62
     7
370
    25
100
AcDbLine
 10
54.2239634446
 20
3.968810038
 30
0.0
 11
35.7760365554
 21
3.968810038
 31
0.0
  0
LINE
  5
7D
330
1F
100
AcDbEntity
  8
0
  6
Continuous
 62
     7
370
    25
100
AcDbLine
 10
35.7760365554
 20
3.968810038
 30
0.0
 11
35.7760365554
 21
11.3516555726
 31
0.0
  0
LINE
  5
7E
330
1F
100
AcDbEntity
  8
0
  6
Continuous
 62
     7
370
    25
100
AcDbLine
 10
35.7760365554
 20
11.3516555726
 30
0.0
 11
30.7623665475
 21
16.3653255805
 31
0.0
  0
LINE
  5
7F
330
1F
100
AcDbEntity
  8
0
  6
Continuous
 62
     7
370
    25
100
AcDbLine
 10
30.7623665475
 20
16.3653255805
 30
0.0
 11
30.7623665475
 21
21.4163979774
 31
0.0
  0
LINE
  5
80
330
1F
100
AcDbEntity
  8
0
  6
Continuous
 62
     7
370
    25
100
AcDbLine
 10
30.7623665475
 20
21.4163979774
 30
0.0
 11
29.6727055381
 21
22.5060589868
 31
0.0
  0
LINE
  5
81
330
1F
100
AcDbEntity
  8
0
  6
Continuous
 62
     7
370
    25
100
AcDbLine
 10
29.6727055381
 20
22.5060589868
 30
0.0
 11
30.7623665475
 21
23.5957199962
 31
0.0
  0
LINE
  5
82
330
1F
100
AcDbEntity
  8
0
  6
Continuous
 62
     7
370
    25
100
AcDbLine
 10
30.7623665475
 20
23.5957199962
 30
0.0
 11
30.7623665475
 21
29.5633619699
 31
0.0
  0
ARC
  5
83
330
1F
100
AcDbEntity
  8
0
  6
Continuous
 62
     7
370
    25
100
AcDbCircle
 10
45.0
 20
45.0
 30
0.0
 40
21.00000000000001
100
AcDbArc
 50
222.6861924652
 51
227.3138075348
  0
LINE
  5
84
330
1F
100
AcDbEntity
  8
0
  6
Continuous
 62
     7
370
    25
100
AcDbLine
 10
29.5633619699
 20
30.7623665475
 30
0.0
 11
23.5957199962
 21
30.7623665475
 31
0.0
  0
LINE
  5
85
330
1F
100
AcDbEntity
  8
0
  6
Continuous
 62
     7
370
    25
100
AcDbLine
 10
23.5957199962
 20
30.7623665475
 30
0.0
 11
22.5060589868
 21
29.6727055381
 31
0.0
  0
LINE
  5
86
330
1F
100
AcDbEntity
  8
0
  6
Continuous
 62
     7
370
    25
100
AcDbLine
 10
22.5060589868
 20
29.6727055381
 30
0.0
 11
21.4163979774
 21
30.7623665475
 31
0.0
  0
LINE
  5
87
330
1F
100
AcDbEntity
  8
0
  6
Continuous
 62
     7
370
    25
100
AcDbLine
 10
21.4163979774
 20
30.7623665475
 30
0.0
 11
16.3653255805
 21
30.7623665475
 31
0.0
  0
LINE
  5
88
330
1F
100
AcDbEntity
  8
0
  6
Continuous
 62
     7
370
    25
100
AcDbLine
 10
16.3653255805
 20
30.7623665475
 30
0.0
 11
11.3516555726
 21
35.7760365554
 31
0.0
  0
LINE
  5
89
330
1F
100
AcDbEntity
  8
0
  6
Continuous
 62
     7
370
    25
100
AcDbLine
 10
11.3516555726
 20
35.7760365554
 30
0.0
 11
3.968810038
 21
35.7760365554
 31
0.0
  0
LINE
  5
8A
330
1F
100
AcDbEntity
  8
0
  6
Continuous
 62
     7
370
    25
100
AcDbLine
 10
3.968810038
 20
35.7760365554
 30
0.0
 11
3.968810038
 21
54.2239634446
 31
0.0
  0
LINE
  5
8B
330
1F
100
AcDbEntity
  8
0
  6
Continuous
 62
     7
370
    25
100
AcDbLine
 10
11.3516555726
 20
54.2239634446
 30
0.0
 11
3.968810038
 21
54.2239634446
 31
0.0
  0
LINE
  5
8C
330
1F
100
AcDbEntity
  8
0
  6
Continuous
 62
     7
370
    25
100
AcDbLine
 10
16.3653255805
 20
59.2376334525
 30
0.0
 11
11.3516555726
 21
54.2239634446
 31
0.0
  0
LINE
  5
8D
330
1F
100
AcDbEntity
  8
0
  6
Continuous
 62
     7
370
    25
100
AcDbLine
 10
21.4163979774
 20
59.2376334525
 30
0.0
 11
16.3653255805
 21
59.2376334525
 31
0.0
  0
LINE
  5
8E
330
1F
100
AcDbEntity
  8
0
  6
Continuous
 62
     7
370
    25
100
AcDbLine
 10
22.5060589868
 20
60.3272944619
 30
0.0
 11
21.4163979774
 21
59.2376334525
 31
0.0
  0
LINE
  5
8F
330
1F
100
AcDbEntity
  8
0
  6
Continuous
 62
     7
370
    25
100
AcDbLine
 10
23.5957199962
 20
59.2376334525
 30
0.0
 11
22.5060589868
 21
60.3272944619
 31
0.0
  0
LINE
  5
90
330
1F
100
AcDbEntity
  8
0
  6
Continuous
 62
     7
370
    25
100
AcDbLine
 10
29.5633619699
 20
59.2376334525
 30
0.0
 11
23.5957199962
 21
59.2376334525
 31
0.0
  0
ARC
  5
91
330
1F
100
AcDbEntity
  8
0
  6
Continuous
 62
     7
370
    25
100
AcDbCircle
 10
45.0
 20
45.0
 30
0.0
 40
21.00000000000001
100
AcDbArc
 50
132.6861924652
 51
137.3138075348
  0
LINE
  5
92
330
1F
100
AcDbEntity
  8
0
  6
Continuous
 62
     7
370
    25
100
AcDbLine
 10
30.7623665475
 20
66.4042800038
 30
0.0
 11
30.7623665475
 21
60.4366380301
 31
0.0
  0
LINE
  5
93
330
1F
100
AcDbEntity
  8
0
  6
Continuous
 62
     7
370
    25
100
AcDbLine
 10
29.6727055381
 20
67.4939410132
 30
0.0
 11
30.7623665475
 21
66.4042800038
 31
0.0
  0
LINE
  5
94
330
1F
100
AcDbEntity
  8
0
  6
Continuous
 62
     7
370
    25
100
AcDbLine
 10
30.7623665475
 20
68.5836020226
 30
0.0
 11
29.6727055381
 21
67.4939410132
 31
0.0
  0
LINE
  5
95
330
1F
100
AcDbEntity
  8
0
  6
Continuous
 62
     7
370
    25
100
AcDbLine
 10
30.7623665475
 20
73.6346744195
 30
0.0
 11
30.7623665475
 21
68.5836020226
 31
0.0
  0
LINE
  5
96
330
1F
100
AcDbEntity
  8
0
  6
Continuous
 62
     7
370
    25
100
AcDbLine
 10
35.7760365554
 20
78.6483444274
 30
0.0
 11
30.7623665475
 21
73.6346744195
 31
0.0
  0
LINE
  5
97
330
1F
100
AcDbEntity
  8
0
  6
Continuous
 62
     7
370
    25
100
AcDbLine
 10
35.7760365554
 20
86.031189962
 30
0.0
 11
35.7760365554
 21
78.6483444274
 31
0.0
  0
LINE
  5
98
330
1F
100
AcDbEntity
  8
0
  6
Continuous
 62
     7
370
    25
100
AcDbLine
 10
54.2239634446
 20
86.031189962
 30
0.0
 11
35.7760365554
 21
86.031189962
 31
0.0
  0
LINE
  5
99
330
1F
100
AcDbEntity
  8
0
  6
Continuous
 62
     7
370
    25
100
AcDbLine
 10
54.2239634446
 20
78.6483444274
 30
0.0
 11
54.2239634446
 21
86.031189962
 31
0.0
  0
LINE
  5
9A
330
1F
100
AcDbEntity
  8
0
  6
Continuous
 62
     7
370
    25
100
AcDbLine
 10
59.2376334525
 20
73.6346744195
 30
0.0
 11
54.2239634446
 21
78.6483444274
 31
0.0
  0
LINE
  5
9B
330
1F
100
AcDbEntity
  8
0
  6
Continuous
 62
     7
370
    25
100
AcDbLine
 10
59.2376334525
 20
68.5836020226
 30
0.0
 11
59.2376334525
 21
73.6346744195
 31
0.0
  0
LINE
  5
9C
330
1F
100
AcDbEntity
  8
0
  6
Continuous
 62
     7
370
    25
100
AcDbLine
 10
60.3272944619
 20
67.4939410132
 30
0.0
 11
59.2376334525
 21
68.5836020226
 31
0.0
  0
LINE
  5
9D
330
1F
100
AcDbEntity
  8
0
  6
Continuous
 62
     7
370
    25
100
AcDbLine
 10
59.2376334525
 20
66.4042800038
 30
0.0
 11
60.3272944619
 21
67.4939410132
 31
0.0
  0
LINE
  5
9E
330
1F
100
AcDbEntity
  8
0
  6
Continuous
 62
     7
370
    25
100
AcDbLine
 10
59.2376334525
 20
48.0458348992
 30
0.0
 11
59.2376334525
 21
66.4042800038
 31
0.0
  0
LINE
  5
9F
330
1F
100
AcDbEntity
  8
0
  6
Continuous
 62
     7
370
    25
100
AcDbLine
 10
0.7270834036
 20
53.0366438247
 30
0.0
 11
0.0
 21
53.0366438247
 31
0.0
  0
LINE
  5
A0
330
1F
100
AcDbEntity
  8
0
  6
Continuous
 62
     7
370
    25
100
AcDbLine
 10
0.7270834036
 20
53.0366438247
 30
0.0
 11
0.7270834036
 21
36.9633561753
 31
0.0
  0
LINE
  5
A1
330
1F
100
AcDbEntity
  8
0
  6
Continuous
 62
     7
370
    25
100
AcDbLine
 10
0.7270834036
 20
36.9633561753
 30
0.0
 11
0.0
 21
36.9633561753
 31
0.0
  0
LINE
  5
A2
330
1F
100
AcDbEntity
  8
0
  6
Continuous
 62
     7
370
    25
100
AcDbLine
 10
0.0
 20
36.9633561753
 30
0.0
 11
0.0
 21
28.6764392946
 31
0.0
  0
LINE
  5
A3
330
1F
100
AcDbEntity
  8
0
  6
Continuous
 62
     7
370
    25
100
AcDbLine
 10
0.0
 20
28.6764392946
 30
0.0
 11
1.4541668072
 21
28.6764392946
 31
0.0
  0
LINE
  5
A4
330
1F
100
AcDbEntity
  8
0
  6
Continuous
 62
     7
370
    25
100
AcDbLine
 10
1.4541668072
 20
28.6764392946
 30
0.0
 11
1.4541668072
 21
27.6088359569
 31
0.0
  0
LINE
  5
A5
330
1F
100
AcDbEntity
  8
0
  6
Continuous
 62
     7
370
    25
100
AcDbLine
 10
1.4541668072
 20
27.6088359569
 30
0.0
 11
6.0239795107
 21
27.6088359569
 31
0.0
  0
LINE
  5
A6
330
1F
100
AcDbEntity
  8
0
  6
Continuous
 62
     7
370
    25
100
AcDbLine
 10
6.0239795107
 20
27.6088359569
 30
0.0
 11
6.0239795107
 21
30.3025064503
 31
0.0
  0
LINE
  5
A7
330
1F
100
AcDbEntity
  8
0
  6
Continuous
 62
     7
370
    25
100
AcDbLine
 10
6.0239795107
 20
30.3025064503
 30
0.0
 11
4.668810038
 21
30.3025064503
 31
0.0
  0
ARC
  5
A8
330
1F
100
AcDbEntity
  8
0
  6
Continuous
 62
     7
370
    25
100
AcDbCircle
 10
4.668810038
 20
31.0025064503
 30
0.0
 40
0.6999999999999993
100
AcDbArc
 50
180.0
 51
270.0
  0
LINE
  5
A9
330
1F
100
AcDbEntity
  8
0
  6
Continuous
 62
     7
370
    25
100
AcDbLine
 10
3.968810038
 20
31.0025064503
 30
0.0
 11
3.968810038
 21
32.4039059065
 31
0.0
  0
ARC
  5
AA
330
1F
100
AcDbEntity
  8
0
  6
Continuous
 62
     7
370
    25
100
AcDbCircle
 10
4.668810038
 20
32.4039059065
 30
0.0
 40
0.6999999999999997
100
AcDbArc
 50
90.0
 51
180.0
  0
LINE
  5
AB
330
1F
100
AcDbEntity
  8
0
  6
Continuous
 62
     7
370
    25
100
AcDbLine
 10
4.668810038
 20
33.1039059065
 30
0.0
 11
9.6439175263
 21
33.1039059065
 31
0.0
  0
ARC
  5
AC
330
1F
100
AcDbEntity
  8
0
  6
Continuous
 62
     7
370
    25
100
AcDbCircle
 10
9.6439175263
 20
32.4039059065
 30
0.0
 40
0.7000000000000028
100
AcDbArc
 50
45.0
 51
90.0
  0
LINE
  5
AD
330
1F
100
AcDbEntity
  8
0
  6
Continuous
 62
     7
370
    25
100
AcDbLine
 10
10.1388922731
 20
32.8988806534
 30
0.0
 11
13.9683795156
 21
29.0693934109
 31
0.0
  0
ARC
  5
AE
330
1F
100
AcDbEntity
  8
0
  6
Continuous
 62
     7
370
    25
100
AcDbCircle
 10
13.4734047687
 20
28.5744186641
 30
0.0
 40
0.7000000000000024
100
AcDbArc
 50
0.0
 51
45.0
  0
LINE
  5
AF
330
1F
100
AcDbEntity
  8
0
  6
Continuous
 62
     7
370
    25
100
AcDbLine
 10
14.1734047687
 20
28.5744186641
 30
0.0
 11
14.1734047687
 21
23.5794467136
 31
0.0
  0
LINE
  5
B0
330
1F
100
AcDbEntity
  8
0
  6
Continuous
 62
     7
370
    25
100
AcDbLine
 10
14.1734047687
 20
23.5794467136
 30
0.0
 11
14.8736858962
 21
22.5088359569
 31
0.0
  0
LINE
  5
B1
330
1F
100
AcDbEntity
  8
0
  6
Continuous
 62
     7
370
    25
100
AcDbLine
 10
14.8736858962
 20
22.5088359569
 30
0.0
 11
14.1734047687
 21
21.4382252002
 31
0.0
  0
LINE
  5
B2
330
1F
100
AcDbEntity
  8
0
  6
Continuous
 62
     7
370
    25
100
AcDbLine
 10
14.1734047687
 20
21.4382252002
 30
0.0
 11
14.1734047687
 21
16.4432532497
 31
0.0
  0
ARC
  5
B3
330
1F
100
AcDbEntity
  8
0
  6
Continuous
 62
     7
370
    25
100
AcDbCircle
 10
13.4734047687
 20
16.4432532497
 30
0.0
 40
0.7000000000000024
100
AcDbArc
 50
315.0
 51
0.0
  0
LINE
  5
B4
330
1F
100
AcDbEntity
  8
0
  6
Continuous
 62
     7
370
    25
100
AcDbLine
 10
13.9683795156
 20
15.9482785029
 30
0.0
 11
10.1388922731
 21
12.1187912604
 31
0.0
  0
ARC
  5
B5
330
1F
100
AcDbEntity
  8
0
  6
Continuous
 62
     7
370
    25
100
AcDbCircle
 10
9.6439175263
 20
12.6137660072
 30
0.0
 40
0.7000000000000012
100
AcDbArc
 50
270.0
 51
315.0
  0
LINE
  5
B6
330
1F
100
AcDbEntity
  8
0
  6
Continuous
 62
     7
370
    25
100
AcDbLine
 10
9.6439175263
 20
11.9137660072
 30
0.0
 11
4.668810038
 21
11.9137660072
 31
0.0
  0
ARC
  5
B7
330
1F
100
AcDbEntity
  8
0
  6
Continuous
 62
     7
370
    25
100
AcDbCircle
 10
4.668810038
 20
12.6137660072
 30
0.0
 40
0.7000000000000011
100
AcDbArc
 50
180.0
 51
270.0
  0
LINE
  5
B8
330
1F
100
AcDbEntity
  8
0
  6
Continuous
 62
     7
370
    25
100
AcDbLine
 10
3.968810038
 20
12.6137660072
 30
0.0
 11
3.968810038
 21
14.0151654635
 31
0.0
  0
ARC
  5
B9
330
1F
100
AcDbEntity
  8
0
  6
Continuous
 62
     7
370
    25
100
AcDbCircle
 10
4.668810038
 20
14.0151654635
 30
0.0
 40
0.6999999999999997
100
AcDbArc
 50
90.0
 51
180.0
  0
LINE
  5
BA
330
1F
100
AcDbEntity
  8
0
  6
Continuous
 62
     7
370
    25
100
AcDbLine
 10
4.668810038
 20
14.7151654635
 30
0.0
 11
6.0239795107
 21
14.7151654635
 31
0.0
  0
LINE
  5
BB
330
1F
100
AcDbEntity
  8
0
  6
Continuous
 62
     7
370
    25
100
AcDbLine
 10
6.0239795107
 20
14.7151654635
 30
0.0
 11
6.0239795107
 21
17.4088359569
 31
0.0
  0
LINE
  5
BC
330
1F
100
AcDbEntity
  8
0
  6
Continuous
 62
     7
370
    25
100
AcDbLine
 10
6.0239795107
 20
17.4088359569
 30
0.0
 11
1.4541668072
 21
17.4088359569
 31
0.0
  0
LINE
  5
BD
330
1F
100
AcDbEntity
  8
0
  6
Continuous
 62
     7
370
    25
100
AcDbLine
 10
1.4541668072
 20
17.4088359569
 30
0.0
 11
1.4541668072
 21
16.3412326191
 31
0.0
  0
LINE
  5
BE
330
1F
100
AcDbEntity
  8
0
  6
Continuous
 62
     7
370
    25
100
AcDbLine
 10
1.4541668072
 20
16.3412326191
 30
0.0
 11
0.0
 21
16.3412326191
 31
0.0
  0
LINE
  5
BF
330
1F
100
AcDbEntity
  8
0
  6
Continuous
 62
     7
370
    25
100
AcDbLine
 10
0.0
 20
16.3412326191
 30
0.0
 11
0.0
 21
2.5
 31
0.0
  0
ARC
  5
C0
330
1F
100
AcDbEntity
  8
0
  6
Continuous
 62
     7
370
    25
100
AcDbCircle
 10
2.5
 20
2.5
 30
0.0
 40
2.5
100
AcDbArc
 50
180.0
 51
270.0
  0
LINE
  5
C1
330
1F
100
AcDbEntity
  8
0
  6
Continuous
 62
     7
370
    25
100
AcDbLine
 10
2.5
 20
0.0
 30
0.0
 11
16.3412326191
 21
0.0
 31
0.0
  0
LINE
  5
C2
330
1F
100
AcDbEntity
  8
0
  6
Continuous
 62
     7
370
    25
100
AcDbLine
 10
16.3412326191
 20
0.0
 30
0.0
 11
16.3412326191
 21
1.4541668072
 31
0.0
  0
LINE
  5
C3
330
1F
100
AcDbEntity
  8
0
  6
Continuous
 62
     7
370
    25
100
AcDbLine
 10
16.3412326191
 20
1.4541668072
 30
0.0
 11
17.4088359569
 21
1.4541668072
 31
0.0
  0
LINE
  5
C4
330
1F
100
AcDbEntity
  8
0
  6
Continuous
 62
     7
370
    25
100
AcDbLine
 10
17.4088359569
 20
1.4541668072
 30
0.0
 11
17.4088359569
 21
6.0239795107
 31
0.0
  0
LINE
  5
C5
330
1F
100
AcDbEntity
  8
0
  6
Continuous
 62
     7
370
    25
100
AcDbLine
 10
17.4088359569
 20
6.0239795107
 30
0.0
 11
14.7151654635
 21
6.0239795107
 31
0.0
  0
LINE
  5
C6
330
1F
100
AcDbEntity
  8
0
  6
Continuous
 62
     7
370
    25
100
AcDbLine
 10
14.7151654635
 20
6.0239795107
 30
0.0
 11
14.7151654635
 21
4.668810038
 31
0.0
  0
ARC
  5
C7
330
1F
100
AcDbEntity
  8
0
  6
Continuous
 62
     7
370
    25
100
AcDbCircle
 10
14.0151654635
 20
4.668810038
 30
0.0
 40
0.6999999999999922
100
AcDbArc
 50
270.0
 51
0.0
  0
LINE
  5
C8
330
1F
100
AcDbEntity
  8
0
  6
Continuous
 62
     7
370
    25
100
AcDbLine
 10
14.0151654635
 20
3.968810038
 30
0.0
 11
12.6137660072
 21
3.968810038
 31
0.0
  0
ARC
  5
C9
330
1F
100
AcDbEntity
  8
0
  6
Continuous
 62
     7
370
    25
100
AcDbCircle
 10
12.6137660072
 20
4.668810038
 30
0.0
 40
0.7000000000000064
100
AcDbArc
 50
180.0
 51
270.0
  0
LINE
  5
CA
330
1F
100
AcDbEntity
  8
0
  6
Continuous
 62
     7
370
    25
100
AcDbLine
 10
11.9137660072
 20
4.668810038
 30
0.0
 11
11.9137660072
 21
9.6439175263
 31
0.0
  0
ARC
  5
CB
330
1F
100
AcDbEntity
  8
0
  6
Continuous
 62
     7
370
    25
100
AcDbCircle
 10
12.6137660072
 20
9.6439175263
 30
0.0
 40
0.700000000000033
100
AcDbArc
 50
135.0
 51
180.0
  0
LINE
  5
CC
330
1F
100
AcDbEntity
  8
0
  6
Continuous
 62
     7
370
    25
100
AcDbLine
 10
12.1187912604
 20
10.1388922731
 30
0.0
 11
15.9482785029
 21
13.9683795156
 31
0.0
  0
ARC
  5
CD
330
1F
100
AcDbEntity
  8
0
  6
Continuous
 62
     7
370
    25
100
AcDbCircle
 10
16.4432532497
 20
13.4734047687
 30
0.0
 40
0.7000000000000046
100
AcDbArc
 50
90.0
 51
135.0
  0
LINE
  5
CE
330
1F
100
AcDbEntity
  8
0
  6
Continuous
 62
     7
370
    25
100
AcDbLine
 10
16.4432532497
 20
14.1734047687
 30
0.0
 11
21.4382252002
 21
14.1734047687
 31
0.0
  0
LINE
  5
CF
330
1F
100
AcDbEntity
  8
0
  6
Continuous
 62
     7
370
    25
100
AcDbLine
 10
21.4382252002
 20
14.1734047687
 30
0.0
 11
22.5088359569
 21
14.8736858962
 31
0.0
  0
LINE
  5
D0
330
1F
100
AcDbEntity
  8
0
  6
Continuous
 62
     7
370
    25
100
AcDbLine
 10
22.5088359569
 20
14.8736858962
 30
0.0
 11
23.5794467136
 21
14.1734047687
 31
0.0
  0
LINE
  5
D1
330
1F
100
AcDbEntity
  8
0
  6
Continuous
 62
     7
370
    25
100
AcDbLine
 10
23.5794467136
 20
14.1734047687
 30
0.0
 11
28.5744186641
 21
14.1734047687
 31
0.0
  0
ARC
  5
D2
330
1F
100
AcDbEntity
  8
0
  6
Continuous
 62
     7
370
    25
100
AcDbCircle
 10
28.5744186641
 20
13.4734047687
 30
0.0
 40
0.6999999999999797
100
AcDbArc
 50
45.0
 51
90.0
  0
LINE
  5
D3
330
1F
100
AcDbEntity
  8
0
  6
Continuous
 62
     7
370
    25
100
AcDbLine
 10
29.0693934109
 20
13.9683795156
 30
0.0
 11
32.8988806534
 21
10.1388922731
 31
0.0
  0
ARC
  5
D4
330
1F
100
AcDbEntity
  8
0
  6
Continuous
 62
     7
370
    25
100
AcDbCircle
 10
32.4039059065
 20
9.6439175263
 30
0.0
 40
0.6999999999999835
100
AcDbArc
 50
0.0
 51
45.0
  0
LINE
  5
D5
330
1F
100
AcDbEntity
  8
0
  6
Continuous
 62
     7
370
    25
100
AcDbLine
 10
33.1039059065
 20
9.6439175263
 30
0.0
 11
33.1039059065
 21
4.668810038
 31
0.0
  0
ARC
  5
D6
330
1F
100
AcDbEntity
  8
0
  6
Continuous
 62
     7
370
    25
100
AcDbCircle
 10
32.4039059065
 20
4.668810038
 30
0.0
 40
0.7000000000000064
100
AcDbArc
 50
270.0
 51
360.0
  0
LINE
  5
D7
330
1F
100
AcDbEntity
  8
0
  6
Continuous
 62
     7
370
    25
100
AcDbLine
 10
32.4039059065
 20
3.968810038
 30
0.0
 11
31.0025064503
 21
3.968810038
 31
0.0
  0
ARC
  5
D8
330
1F
100
AcDbEntity
  8
0
  6
Continuous
 62
     7
370
    25
100
AcDbCircle
 10
31.0025064503
 20
4.668810038
 30
0.0
 40
0.7000000000000064
100
AcDbArc
 50
180.0
 51
270.0
  0
LINE
  5
D9
330
1F
100
AcDbEntity
  8
0
  6
Continuous
 62
     7
370
    25
100
AcDbLine
 10
30.3025064503
 20
4.668810038
 30
0.0
 11
30.3025064503
 21
6.0239795107
 31
0.0
  0
LINE
  5
DA
330
1F
100
AcDbEntity
  8
0
  6
Continuous
 62
     7
370
    25
100
AcDbLine
 10
30.3025064503
 20
6.0239795107
 30
0.0
 11
27.6088359569
 21
6.0239795107
 31
0.0
  0
LINE
  5
DB
330
1F
100
AcDbEntity
  8
0
  6
Continuous
 62
     7
370
    25
100
AcDbLine
 10
27.6088359569
 20
6.0239795107
 30
0.0
 11
27.6088359569
 21
1.4541668072
 31
0.0
  0
LINE
  5
DC
330
1F
100
AcDbEntity
  8
0
  6
Continuous
 62
     7
370
    25
100
AcDbLine
 10
27.6088359569
 20
1.4541668072
 30
0.0
 11
28.6764392946
 21
1.4541668072
 31
0.0
  0
LINE
  5
DD
330
1F
100
AcDbEntity
  8
0
  6
Continuous
 62
     7
370
    25
100
AcDbLine
 10
28.6764392946
 20
1.4541668072
 30
0.0
 11
28.6764392946
 21
0.0
 31
0.0
  0
LINE
  5
DE
330
1F
100
AcDbEntity
  8
0
  6
Continuous
 62
     7
370
    25
100
AcDbLine
 10
28.6764392946
 20
0.0
 30
0.0
 11
36.9633561753
 21
0.0
 31
0.0
  0
LINE
  5
DF
330
1F
100
AcDbEntity
  8
0
  6
Continuous
 62
     7
370
    25
100
AcDbLine
 10
36.9633561753
 20
0.0
 30
0.0
 11
36.9633561753
 21
0.7270834036
 31
0.0
  0
LINE
  5
E0
330
1F
100
AcDbEntity
  8
0
  6
Continuous
 62
     7
370
    25
100
AcDbLine
 10
36.9633561753
 20
0.7270834036
 30
0.0
 11
53.0366438247
 21
0.7270834036
 31
0.0
  0
LINE
  5
E1
330
1F
100
AcDbEntity
  8
0
  6
Continuous
 62
     7
370
    25
100
AcDbLine
 10
53.0366438247
 20
0.7270834036
 30
0.0
 11
53.0366438247
 21
0.0
 31
0.0
  0
LINE
  5
E2
330
1F
100
AcDbEntity
  8
0
  6
Continuous
 62
     7
370
    25
100
AcDbLine
 10
53.0366438247
 20
0.0
 30
0.0
 11
61.3235607054
 21
0.0
 31
0.0
  0
LINE
  5
E3
330
1F
100
AcDbEntity
  8
0
  6
Continuous
 62
     7
370
    25
100
AcDbLine
 10
61.3235607054
 20
0.0
 30
0.0
 11
61.3235607054
 21
1.4541668072
 31
0.0
  0
LINE
  5
E4
330
1F
100
AcDbEntity
  8
0
  6
Continuous
 62
     7
370
    25
100
AcDbLine
 10
61.3235607054
 20
1.4541668072
 30
0.0
 11
62.3911640431
 21
1.4541668072
 31
0.0
  0
LINE
  5
E5
330
1F
100
AcDbEntity
  8
0
  6
Continuous
 62
     7
370
    25
100
AcDbLine
 10
62.3911640431
 20
1.4541668072
 30
0.0
 11
62.3911640431
 21
6.0239795107
 31
0.0
  0
LINE
  5
E6
330
1F
100
AcDbEntity
  8
0
  6
Continuous
 62
     7
370
    25
100
AcDbLine
 10
62.3911640431
 20
6.0239795107
 30
0.0
 11
59.6974935497
 21
6.0239795107
 31
0.0
  0
LINE
  5
E7
330
1F
100
AcDbEntity
  8
0
  6
Continuous
 62
     7
370
    25
100
AcDbLine
 10
59.6974935497
 20
6.0239795107
 30
0.0
 11
59.6974935497
 21
4.668810038
 31
0.0
  0
ARC
  5
E8
330
1F
100
AcDbEntity
  8
0
  6
Continuous
 62
     7
370
    25
100
AcDbCircle
 10
58.9974935497
 20
4.668810038
 30
0.0
 40
0.6999999999999917
100
AcDbArc
 50
270.0
 51
0.0
  0
LINE
  5
E9
330
1F
100
AcDbEntity
  8
0
  6
Continuous
 62
     7
370
    25
100
AcDbLine
 10
58.9974935497
 20
3.968810038
 30
0.0
 11
57.5960940935
 21
3.968810038
 31
0.0
  0
ARC
  5
EA
330
1F
100
AcDbEntity
  8
0
  6
Continuous
 62
     7
370
    25
100
AcDbCircle
 10
57.5960940935
 20
4.668810038
 30
0.0
 40
0.70000000000001
100
AcDbArc
 50
180.0
 51
270.0
  0
LINE
  5
EB
330
1F
100
AcDbEntity
  8
0
  6
Continuous
 62
     7
370
    25
100
AcDbLine
 10
56.8960940935
 20
4.668810038
 30
0.0
 11
56.8960940935
 21
9.6439175263
 31
0.0
  0
ARC
  5
EC
330
1F
100
AcDbEntity
  8
0
  6
Continuous
 62
     7
370
    25
100
AcDbCircle
 10
57.5960940935
 20
9.6439175263
 30
0.0
 40
0.6999999999999815
100
AcDbArc
 50
135.0
 51
180.0
  0
LINE
  5
ED
330
1F
100
AcDbEntity
  8
0
  6
Continuous
 62
     7
370
    25
100
AcDbLine
 10
57.1011193466
 20
10.1388922731
 30
0.0
 11
60.9306065891
 21
13.9683795156
 31
0.0
  0
ARC
  5
EE
330
1F
100
AcDbEntity
  8
0
  6
Continuous
 62
     7
370
    25
100
AcDbCircle
 10
61.4255813359
 20
13.4734047687
 30
0.0
 40
0.6999999999999673
100
AcDbArc
 50
90.0
 51
135.0
  0
LINE
  5
EF
330
1F
100
AcDbEntity
  8
0
  6
Continuous
 62
     7
370
    25
100
AcDbLine
 10
61.4255813359
 20
14.1734047687
 30
0.0
 11
66.4205532864
 21
14.1734047687
 31
0.0
  0
LINE
  5
F0
330
1F
100
AcDbEntity
  8
0
  6
Continuous
 62
     7
370
    25
100
AcDbLine
 10
66.4205532864
 20
14.1734047687
 30
0.0
 11
67.4911640431
 21
14.8736858962
 31
0.0
  0
LINE
  5
F1
330
1F
100
AcDbEntity
  8
0
  6
Continuous
 62
     7
370
    25
100
AcDbLine
 10
67.4911640431
 20
14.8736858962
 30
0.0
 11
68.5617747998
 21
14.1734047687
 31
0.0
  0
LINE
  5
F2
330
1F
100
AcDbEntity
  8
0
  6
Continuous
 62
     7
370
    25
100
AcDbLine
 10
68.5617747998
 20
14.1734047687
 30
0.0
 11
73.5567467503
 21
14.1734047687
 31
0.0
  0
ARC
  5
F3
330
1F
100
AcDbEntity
  8
0
  6
Continuous
 62
     7
370
    25
100
AcDbCircle
 10
73.5567467503
 20
13.4734047687
 30
0.0
 40
0.7000000000000086
100
AcDbArc
 50
45.0
 51
90.0
  0
LINE
  5
F4
330
1F
100
AcDbEntity
  8
0
  6
Continuous
 62
     7
370
    25
100
AcDbLine
 10
74.0517214971
 20
13.9683795156
 30
0.0
 11
77.8812087396
 21
10.1388922731
 31
0.0
  0
ARC
  5
F5
330
1F
100
AcDbEntity
  8
0
  6
Continuous
 62
     7
370
    25
100
AcDbCircle
 10
77.3862339928
 20
9.6439175263
 30
0.0
 40
0.7000000000000313
100
AcDbArc
 50
0.0
 51
45.0
  0
LINE
  5
F6
330
1F
100
AcDbEntity
  8
0
  6
Continuous
 62
     7
370
    25
100
AcDbLine
 10
78.0862339928
 20
9.6439175263
 30
0.0
 11
78.0862339928
 21
4.668810038
 31
0.0
  0
ARC
  5
F7
330
1F
100
AcDbEntity
  8
0
  6
Continuous
 62
     7
370
    25
100
AcDbCircle
 10
77.3862339928
 20
4.668810038
 30
0.0
 40
0.700000000000017
100
AcDbArc
 50
270.0
 51
0.0
  0
LINE
  5
F8
330
1F
100
AcDbEntity
  8
0
  6
Continuous
 62
     7
370
    25
100
AcDbLine
 10
77.3862339928
 20
3.968810038
 30
0.0
 11
75.9848345365
 21
3.968810038
 31
0.0
  0
ARC
  5
F9
330
1F
100
AcDbEntity
  8
0
  6
Continuous
 62
     7
370
    25
100
AcDbCircle
 10
75.9848345365
 20
4.668810038
 30
0.0
 40
0.7000000000000064
100
AcDbArc
 50
180.0
 51
270.0
  0
LINE
  5
FA
330
1F
100
AcDbEntity
  8
0
  6
Continuous
 62
     7
370
    25
100
AcDbLine
 10
75.2848345365
 20
4.668810038
 30
0.0
 11
75.2848345365
 21
6.0239795107
 31
0.0
  0
LINE
  5
FB
330
1F
100
AcDbEntity
  8
0
  6
Continuous
 62
     7
370
    25
100
AcDbLine
 10
75.2848345365
 20
6.0239795107
 30
0.0
 11
72.5911640431
 21
6.0239795107
 31
0.0
  0
LINE
  5
FC
330
1F
100
AcDbEntity
  8
0
  6
Continuous
 62
     7
370
    25
100
AcDbLine
 10
72.5911640431
 20
6.0239795107
 30
0.0
 11
72.5911640431
 21
1.4541668072
 31
0.0
  0
LINE
  5
FD
330
1F
100
AcDbEntity
  8
0
  6
Continuous
 62
     7
370
    25
100
AcDbLine
 10
72.5911640431
 20
1.4541668072
 30
0.0
 11
73.6587673809
 21
1.4541668072
 31
0.0
  0
LINE
  5
FE
330
1F
100
AcDbEntity
  8
0
  6
Continuous
 62
     7
370
    25
100
AcDbLine
 10
73.6587673809
 20
1.4541668072
 30
0.0
 11
73.6587673809
 21
0.0
 31
0.0
  0
LINE
  5
FF
330
1F
100
AcDbEntity
  8
0
  6
Continuous
 62
     7
370
    25
100
AcDbLine
 10
73.6587673809
 20
0.0
 30
0.0
 11
81.9110238068
 21
0.0
 31
0.0
  0
LINE
  5
100
330
1F
100
AcDbEntity
  8
0
  6
Continuous
 62
     7
370
    25
100
AcDbLine
 10
81.9110238068
 20
0.0
 30
0.0
 11
81.9110238068
 21
0.7270834036
 31
0.0
  0
LINE
  5
101
330
1F
100
AcDbEntity
  8
0
  6
Continuous
 62
     7
370
    25
100
AcDbLine
 10
81.9110238068
 20
0.7270834036
 30
0.0
 11
98.0889761932
 21
0.7270834036
 31
0.0
  0
LINE
  5
102
330
1F
100
AcDbEntity
  8
0
  6
Continuous
 62
     7
370
    25
100
AcDbLine
 10
98.0889761932
 20
0.0
 30
0.0
 11
98.0889761932
 21
0.7270834036
 31
0.0
  0
LINE
  5
103
330
1F
100
AcDbEntity
  8
0
  6
Continuous
 62
     7
370
    25
100
AcDbLine
 10
106.3412326191
 20
0.0
 30
0.0
 11
98.0889761932
 21
0.0
 31
0.0
  0
LINE
  5
104
330
1F
100
AcDbEntity
  8
0
  6
Continuous
 62
     7
370
    25
100
AcDbLine
 10
106.3412326191
 20
1.4541668072
 30
0.0
 11
106.3412326191
 21
0.0
 31
0.0
  0
LINE
  5
105
330
1F
100
AcDbEntity
  8
0
  6
Continuous
 62
     7
370
    25
100
AcDbLine
 10
107.4088359569
 20
1.4541668072
 30
0.0
 11
106.3412326191
 21
1.4541668072
 31
0.0
  0
LINE
  5
106
330
1F
100
AcDbEntity
  8
0
  6
Continuous
 62
     7
370
    25
100
AcDbLine
 10
107.4088359569
 20
6.0239795107
 30
0.0
 11
107.4088359569
 21
1.4541668072
 31
0.0
  0
LINE
  5
107
330
1F
100
AcDbEntity
  8
0
  6
Continuous
 62
     7
370
    25
100
AcDbLine
 10
104.7151654635
 20
6.0239795107
 30
0.0
 11
107.4088359569
 21
6.0239795107
 31
0.0
  0
LINE
  5
108
330
1F
100
AcDbEntity
  8
0
  6
Continuous
 62
     7
370
    25
100
AcDbLine
 10
104.7151654635
 20
4.668810038
 30
0.0
 11
104.7151654635
 21
6.0239795107
 31
0.0
  0
ARC
  5
109
330
1F
100
AcDbEntity
  8
0
  6
Continuous
 62
     7
370
    25
100
AcDbCircle
 10
104.0151654635
 20
4.668810038
 30
0.0
 40
0.7000000000000064
100
AcDbArc
 50
270.0
 51
0.0
  0
LINE
  5
10A
330
1F
100
AcDbEntity
  8
0
  6
Continuous
 62
     7
370
    25
100
AcDbLine
 10
102.6137660072
 20
3.968810038
 30
0.0
 11
104.0151654635
 21
3.968810038
 31
0.0
  0
ARC
  5
10B
330
1F
100
AcDbEntity
  8
0
  6
Continuous
 62
     7
370
    25
100
AcDbCircle
 10
102.6137660072
 20
4.668810038
 30
0.0
 40
0.700000000000006
100
AcDbArc
 50
180.0
 51
270.0
  0
LINE
  5
10C
330
1F
100
AcDbEntity
  8
0
  6
Continuous
 62
     7
370
    25
100
AcDbLine
 10
101.9137660072
 20
9.6439175263
 30
0.0
 11
101.9137660072
 21
4.668810038
 31
0.0
  0
ARC
  5
10D
330
1F
100
AcDbEntity
  8
0
  6
Continuous
 62
     7
370
    25
100
AcDbCircle
 10
102.6137660072
 20
9.6439175263
 30
0.0
 40
0.7000000000000199
100
AcDbArc
 50
135.0
 51
180.0
  0
LINE
  5
10E
330
1F
100
AcDbEntity
  8
0
  6
Continuous
 62
     7
370
    25
100
AcDbLine
 10
105.9482785029
 20
13.9683795156
 30
0.0
 11
102.1187912604
 21
10.1388922731
 31
0.0
  0
ARC
  5
10F
330
1F
100
AcDbEntity
  8
0
  6
Continuous
 62
     7
370
    25
100
AcDbCircle
 10
106.4432532497
 20
13.4734047687
 30
0.0
 40
0.7000000000000086
100
AcDbArc
 50
90.0
 51
135.0
  0
LINE
  5
110
330
1F
100
AcDbEntity
  8
0
  6
Continuous
 62
     7
370
    25
100
AcDbLine
 10
111.4382252002
 20
14.1734047687
 30
0.0
 11
106.4432532497
 21
14.1734047687
 31
0.0
  0
LINE
  5
111
330
1F
100
AcDbEntity
  8
0
  6
Continuous
 62
     7
370
    25
100
AcDbLine
 10
112.5088359569
 20
14.8736858962
 30
0.0
 11
111.4382252002
 21
14.1734047687
 31
0.0
  0
LINE
  5
112
330
1F
100
AcDbEntity
  8
0
  6
Continuous
 62
     7
370
    25
100
AcDbLine
 10
113.5794467136
 20
14.1734047687
 30
0.0
 11
112.5088359569
 21
14.8736858962
 31
0.0
  0
LINE
  5
113
330
1F
100
AcDbEntity
  8
0
  6
Continuous
 62
     7
370
    25
100
AcDbLine
 10
118.5744186641
 20
14.1734047687
 30
0.0
 11
113.5794467136
 21
14.1734047687
 31
0.0
  0
ARC
  5
114
330
1F
100
AcDbEntity
  8
0
  6
Continuous
 62
     7
370
    25
100
AcDbCircle
 10
118.5744186641
 20
13.4734047687
 30
0.0
 40
0.6999999999999673
100
AcDbArc
 50
45.0
 51
90.0
  0
LINE
  5
115
330
1F
100
AcDbEntity
  8
0
  6
Continuous
 62
     7
370
    25
100
AcDbLine
 10
122.8988806534
 20
10.1388922731
 30
0.0
 11
119.0693934109
 21
13.9683795156
 31
0.0
  0
ARC
  5
116
330
1F
100
AcDbEntity
  8
0
  6
Continuous
 62
     7
370
    25
100
AcDbCircle
 10
122.4039059065
 20
9.6439175263
 30
0.0
 40
0.6999999999999861
100
AcDbArc
 50
0.0
 51
45.0
  0
LINE
  5
117
330
1F
100
AcDbEntity
  8
0
  6
Continuous
 62
     7
370
    25
100
AcDbLine
 10
123.1039059065
 20
4.668810038
 30
0.0
 11
123.1039059065
 21
9.6439175263
 31
0.0
  0
ARC
  5
118
330
1F
100
AcDbEntity
  8
0
  6
Continuous
 62
     7
370
    25
100
AcDbCircle
 10
122.4039059065
 20
4.668810038
 30
0.0
 40
0.700000000000006
100
AcDbArc
 50
270.0
 51
360.0
  0
LINE
  5
119
330
1F
100
AcDbEntity
  8
0
  6
Continuous
 62
     7
370
    25
100
AcDbLine
 10
121.0025064503
 20
3.968810038
 30
0.0
 11
122.4039059065
 21
3.968810038
 31
0.0
  0
ARC
  5
11A
330
1F
100
AcDbEntity
  8
0
  6
Continuous
 62
     7
370
    25
100
AcDbCircle
 10
121.0025064503
 20
4.668810038
 30
0.0
 40
0.6999999999999917
100
AcDbArc
 50
180.0
 51
270.0
  0
LINE
  5
11B
330
1F
100
AcDbEntity
  8
0
  6
Continuous
 62
     7
370
    25
100
AcDbLine
 10
120.3025064503
 20
6.0239795107
 30
0.0
 11
120.3025064503
 21
4.668810038
 31
0.0
  0
LINE
  5
11C
330
1F
100
AcDbEntity
  8
0
  6
Continuous
 62
     7
370
    25
100
AcDbLine
 10
117.6088359569
 20
6.0239795107
 30
0.0
 11
120.3025064503
 21
6.0239795107
 31
0.0
  0
LINE
  5
11D
330
1F
100
AcDbEntity
  8
0
  6
Continuous
 62
     7
370
    25
100
AcDbLine
 10
117.6088359569
 20
1.4541668072
 30
0.0
 11
117.6088359569
 21
6.0239795107
 31
0.0
  0
LINE
  5
11E
330
1F
100
AcDbEntity
  8
0
  6
Continuous
 62
     7
370
    25
100
AcDbLine
 10
118.6764392946
 20
1.4541668072
 30
0.0
 11
117.6088359569
 21
1.4541668072
 31
0.0
  0
LINE
  5
11F
330
1F
100
AcDbEntity
  8
0
  6
Continuous
 62
     7
370
    25
100
AcDbLine
 10
118.6764392946
 20
0.0
 30
0.0
 11
118.6764392946
 21
1.4541668072
 31
0.0
  0
LINE
  5
120
330
1F
100
AcDbEntity
  8
0
  6
Continuous
 62
     7
370
    25
100
AcDbLine
 10
126.9633561753
 20
0.0
 30
0.0
 11
118.6764392946
 21
0.0
 31
0.0
  0
LINE
  5
121
330
1F
100
AcDbEntity
  8
0
  6
Continuous
 62
     7
370
    25
100
AcDbLine
 10
126.9633561753
 20
0.7270834036
 30
0.0
 11
126.9633561753
 21
0.0
 31
0.0
  0
LINE
  5
122
330
1F
100
AcDbEntity
  8
0
  6
Continuous
 62
     7
370
    25
100
AcDbLine
 10
143.0366438247
 20
0.7270834036
 30
0.0
 11
126.9633561753
 21
0.7270834036
 31
0.0
  0
LINE
  5
123
330
1F
100
AcDbEntity
  8
0
  6
Continuous
 62
     7
370
    25
100
AcDbLine
 10
143.0366438247
 20
0.0
 30
0.0
 11
143.0366438247
 21
0.7270834036
 31
0.0
  0
LINE
  5
124
330
1F
100
AcDbEntity
  8
0
  6
Continuous
 62
     7
370
    25
100
AcDbLine
 10
151.3235607054
 20
0.0
 30
0.0
 11
143.0366438247
 21
0.0
 31
0.0
  0
LINE
  5
125
330
1F
100
AcDbEntity
  8
0
  6
Continuous
 62
     7
370
    25
100
AcDbLine
 10
151.3235607054
 20
1.4541668072
 30
0.0
 11
151.3235607054
 21
0.0
 31
0.0
  0
LINE
  5
126
330
1F
100
AcDbEntity
  8
0
  6
Continuous
 62
     7
370
    25
100
AcDbLine
 10
152.3911640431
 20
1.4541668072
 30
0.0
 11
151.3235607054
 21
1.4541668072
 31
0.0
  0
LINE
  5
127
330
1F
100
AcDbEntity
  8
0
  6
Continuous
 62
     7
370
    25
100
AcDbLine
 10
152.3911640431
 20
6.0239795107
 30
0.0
 11
152.3911640431
 21
1.4541668072
 31
0.0
  0
LINE
  5
128
330
1F
100
AcDbEntity
  8
0
  6
Continuous
 62
     7
370
    25
100
AcDbLine
 10
149.6974935497
 20
6.0239795107
 30
0.0
 11
152.3911640431
 21
6.0239795107
 31
0.0
  0
LINE
  5
129
330
1F
100
AcDbEntity
  8
0
  6
Continuous
 62
     7
370
    25
100
AcDbLine
 10
149.6974935497
 20
4.668810038
 30
0.0
 11
149.6974935497
 21
6.0239795107
 31
0.0
  0
ARC
  5
12A
330
1F
100
AcDbEntity
  8
0
  6
Continuous
 62
     7
370
    25
100
AcDbCircle
 10
148.9974935497
 20
4.668810038
 30
0.0
 40
0.7000000000000064
100
AcDbArc
 50
270.0
 51
0.0
  0
LINE
  5
12B
330
1F
100
AcDbEntity
  8
0
  6
Continuous
 62
     7
370
    25
100
AcDbLine
 10
147.5960940935
 20
3.968810038
 30
0.0
 11
148.9974935497
 21
3.968810038
 31
0.0
  0
ARC
  5
12C
330
1F
100
AcDbEntity
  8
0
  6
Continuous
 62
     7
370
    25
100
AcDbCircle
 10
147.5960940935
 20
4.668810038
 30
0.0
 40
0.700000000000017
100
AcDbArc
 50
180.0
 51
270.0
  0
LINE
  5
12D
330
1F
100
AcDbEntity
  8
0
  6
Continuous
 62
     7
370
    25
100
AcDbLine
 10
146.8960940935
 20
9.6439175263
 30
0.0
 11
146.8960940935
 21
4.668810038
 31
0.0
  0
ARC
  5
12E
330
1F
100
AcDbEntity
  8
0
  6
Continuous
 62
     7
370
    25
100
AcDbCircle
 10
147.5960940935
 20
9.6439175263
 30
0.0
 40
0.6999999999999986
100
AcDbArc
 50
135.0
 51
180.0
  0
LINE
  5
12F
330
1F
100
AcDbEntity
  8
0
  6
Continuous
 62
     7
370
    25
100
AcDbLine
 10
150.9306065891
 20
13.9683795156
 30
0.0
 11
147.1011193466
 21
10.1388922731
 31
0.0
  0
ARC
  5
130
330
1F
100
AcDbEntity
  8
0
  6
Continuous
 62
     7
370
    25
100
AcDbCircle
 10
151.4255813359
 20
13.4734047687
 30
0.0
 40
0.6999999999999797
100
AcDbArc
 50
90.0
 51
135.0
  0
LINE
  5
131
330
1F
100
AcDbEntity
  8
0
  6
Continuous
 62
     7
370
    25
100
AcDbLine
 10
156.4205532864
 20
14.1734047687
 30
0.0
 11
151.4255813359
 21
14.1734047687
 31
0.0
  0
LINE
  5
132
330
1F
100
AcDbEntity
  8
0
  6
Continuous
 62
     7
370
    25
100
AcDbLine
 10
157.4911640431
 20
14.8736858962
 30
0.0
 11
156.4205532864
 21
14.1734047687
 31
0.0
  0
LINE
  5
133
330
1F
100
AcDbEntity
  8
0
  6
Continuous
 62
     7
370
    25
100
AcDbLine
 10
158.5617747998
 20
14.1734047687
 30
0.0
 11
157.4911640431
 21
14.8736858962
 31
0.0
  0
LINE
  5
134
330
1F
100
AcDbEntity
  8
0
  6
Continuous
 62
     7
370
    25
100
AcDbLine
 10
163.5567467503
 20
14.1734047687
 30
0.0
 11
158.5617747998
 21
14.1734047687
 31
0.0
  0
ARC
  5
135
330
1F
100
AcDbEntity
  8
0
  6
Continuous
 62
     7
370
    25
100
AcDbCircle
 10
163.5567467503
 20
13.4734047687
 30
0.0
 40
0.7000000000000187
100
AcDbArc
 50
45.0
 51
90.0
  0
LINE
  5
136
330
1F
100
AcDbEntity
  8
0
  6
Continuous
 62
     7
370
    25
100
AcDbLine
 10
167.8812087396
 20
10.1388922731
 30
0.0
 11
164.0517214971
 21
13.9683795156
 31
0.0
  0
ARC
  5
137
330
1F
100
AcDbEntity
  8
0
  6
Continuous
 62
     7
370
    25
100
AcDbCircle
 10
167.3862339928
 20
9.6439175263
 30
0.0
 40
0.7000000000000213
100
AcDbArc
 50
0.0
 51
45.0
  0
LINE
  5
138
330
1F
100
AcDbEntity
  8
0
  6
Continuous
 62
     7
370
    25
100
AcDbLine
 10
168.0862339928
 20
4.668810038
 30
0.0
 11
168.0862339928
 21
9.6439175263
 31
0.0
  0
ARC
  5
139
330
1F
100
AcDbEntity
  8
0
  6
Continuous
 62
     7
370
    25
100
AcDbCircle
 10
167.3862339928
 20
4.668810038
 30
0.0
 40
0.7000000000000064
100
AcDbArc
 50
270.0
 51
0.0
  0
LINE
  5
13A
330
1F
100
AcDbEntity
  8
0
  6
Continuous
 62
     7
370
    25
100
AcDbLine
 10
165.9848345365
 20
3.968810038
 30
0.0
 11
167.3862339928
 21
3.968810038
 31
0.0
  0
ARC
  5
13B
330
1F
100
AcDbEntity
  8
0
  6
Continuous
 62
     7
370
    25
100
AcDbCircle
 10
165.9848345365
 20
4.668810038
 30
0.0
 40
0.6999999999999922
100
AcDbArc
 50
180.0
 51
270.0
  0
LINE
  5
13C
330
1F
100
AcDbEntity
  8
0
  6
Continuous
 62
     7
370
    25
100
AcDbLine
 10
165.2848345365
 20
6.0239795107
 30
0.0
 11
165.2848345365
 21
4.668810038
 31
0.0
  0
LINE
  5
13D
330
1F
100
AcDbEntity
  8
0
  6
Continuous
 62
     7
370
    25
100
AcDbLine
 10
162.5911640431
 20
6.0239795107
 30
0.0
 11
165.2848345365
 21
6.0239795107
 31
0.0
  0
LINE
  5
13E
330
1F
100
AcDbEntity
  8
0
  6
Continuous
 62
     7
370
    25
100
AcDbLine
 10
162.5911640431
 20
1.4541668072
 30
0.0
 11
162.5911640431
 21
6.0239795107
 31
0.0
  0
LINE
  5
13F
330
1F
100
AcDbEntity
  8
0
  6
Continuous
 62
     7
370
    25
100
AcDbLine
 10
163.6587673809
 20
1.4541668072
 30
0.0
 11
162.5911640431
 21
1.4541668072
 31
0.0
  0
LINE
  5
140
330
1F
100
AcDbEntity
  8
0
  6
Continuous
 62
     7
370
    25
100
AcDbLine
 10
163.6587673809
 20
0.0
 30
0.0
 11
163.6587673809
 21
1.4541668072
 31
0.0
  0
LINE
  5
141
330
1F
100
AcDbEntity
  8
0
  6
Continuous
 62
     7
370
    25
100
AcDbLine
 10
177.5
 20
0.0
 30
0.0
 11
163.6587673809
 21
0.0
 31
0.0
  0
ARC
  5
142
330
1F
100
AcDbEntity
  8
0
  6
Continuous
 62
     7
370
    25
100
AcDbCircle
 10
177.5
 20
2.5
 30
0.0
 40
2.5
100
AcDbArc
 50
270.0
 51
0.0
  0
LINE
  5
143
330
1F
100
AcDbEntity
  8
0
  6
Continuous
 62
     7
370
    25
100
AcDbLine
 10
180.0
 20
16.3412326191
 30
0.0
 11
180.0
 21
2.5
 31
0.0
  0
LINE
  5
144
330
1F
100
AcDbEntity
  8
0
  6
Continuous
 62
     7
370
    25
100
AcDbLine
 10
178.5458331928
 20
16.3412326191
 30
0.0
 11
180.0
 21
16.3412326191
 31
0.0
  0
LINE
  5
145
330
1F
100
AcDbEntity
  8
0
  6
Continuous
 62
     7
370
    25
100
AcDbLine
 10
178.5458331928
 20
17.4088359569
 30
0.0
 11
178.5458331928
 21
16.3412326191
 31
0.0
  0
LINE
  5
146
330
1F
100
AcDbEntity
  8
0
  6
Continuous
 62
     7
370
    25
100
AcDbLine
 10
173.9760204893
 20
17.4088359569
 30
0.0
 11
178.5458331928
 21
17.4088359569
 31
0.0
  0
LINE
  5
147
330
1F
100
AcDbEntity
  8
0
  6
Continuous
 62
     7
370
    25
100
AcDbLine
 10
173.9760204893
 20
14.7151654635
 30
0.0
 11
173.9760204893
 21
17.4088359569
 31
0.0
  0
LINE
  5
148
330
1F
100
AcDbEntity
  8
0
  6
Continuous
 62
     7
370
    25
100
AcDbLine
 10
175.331189962
 20
14.7151654635
 30
0.0
 11
173.9760204893
 21
14.7151654635
 31
0.0
  0
ARC
  5
149
330
1F
100
AcDbEntity
  8
0
  6
Continuous
 62
     7
370
    25
100
AcDbCircle
 10
175.331189962
 20
14.0151654635
 30
0.0
 40
0.6999999999999993
100
AcDbArc
 50
0.0
 51
90.0
  0
LINE
  5
14A
330
1F
100
AcDbEntity
  8
0
  6
Continuous
 62
     7
370
    25
100
AcDbLine
 10
176.031189962
 20
12.6137660072
 30
0.0
 11
176.031189962
 21
14.0151654635
 31
0.0
  0
ARC
  5
14B
330
1F
100
AcDbEntity
  8
0
  6
Continuous
 62
     7
370
    25
100
AcDbCircle
 10
175.331189962
 20
12.6137660072
 30
0.0
 40
0.7000000000000011
100
AcDbArc
 50
270.0
 51
0.0
  0
LINE
  5
14C
330
1F
100
AcDbEntity
  8
0
  6
Continuous
 62
     7
370
    25
100
AcDbLine
 10
170.3560824737
 20
11.9137660072
 30
0.0
 11
175.331189962
 21
11.9137660072
 31
0.0
  0
ARC
  5
14D
330
1F
100
AcDbEntity
  8
0
  6
Continuous
 62
     7
370
    25
100
AcDbCircle
 10
170.3560824737
 20
12.6137660072
 30
0.0
 40
0.7000000000000074
100
AcDbArc
 50
225.0
 51
270.0
  0
LINE
  5
14E
330
1F
100
AcDbEntity
  8
0
  6
Continuous
 62
     7
370
    25
100
AcDbLine
 10
166.0316204844
 20
15.9482785029
 30
0.0
 11
169.8611077269
 21
12.1187912604
 31
0.0
  0
ARC
  5
14F
330
1F
100
AcDbEntity
  8
0
  6
Continuous
 62
     7
370
    25
100
AcDbCircle
 10
166.5265952313
 20
16.4432532497
 30
0.0
 40
0.6999999999999886
100
AcDbArc
 50
180.0
 51
225.0
  0
LINE
  5
150
330
1F
100
AcDbEntity
  8
0
  6
Continuous
 62
     7
370
    25
100
AcDbLine
 10
165.8265952313
 20
21.4382252002
 30
0.0
 11
165.8265952313
 21
16.4432532497
 31
0.0
  0
LINE
  5
151
330
1F
100
AcDbEntity
  8
0
  6
Continuous
 62
     7
370
    25
100
AcDbLine
 10
165.1263141038
 20
22.5088359569
 30
0.0
 11
165.8265952313
 21
21.4382252002
 31
0.0
  0
LINE
  5
152
330
1F
100
AcDbEntity
  8
0
  6
Continuous
 62
     7
370
    25
100
AcDbLine
 10
165.8265952313
 20
23.5794467136
 30
0.0
 11
165.1263141038
 21
22.5088359569
 31
0.0
  0
LINE
  5
153
330
1F
100
AcDbEntity
  8
0
  6
Continuous
 62
     7
370
    25
100
AcDbLine
 10
165.8265952313
 20
28.5744186641
 30
0.0
 11
165.8265952313
 21
23.5794467136
 31
0.0
  0
ARC
  5
154
330
1F
100
AcDbEntity
  8
0
  6
Continuous
 62
     7
370
    25
100
AcDbCircle
 10
166.5265952313
 20
28.5744186641
 30
0.0
 40
0.6999999999999935
100
AcDbArc
 50
135.0
 51
180.0
  0
LINE
  5
155
330
1F
100
AcDbEntity
  8
0
  6
Continuous
 62
     7
370
    25
100
AcDbLine
 10
169.8611077269
 20
32.8988806534
 30
0.0
 11
166.0316204844
 21
29.0693934109
 31
0.0
  0
ARC
  5
156
330
1F
100
AcDbEntity
  8
0
  6
Continuous
 62
     7
370
    25
100
AcDbCircle
 10
170.3560824737
 20
32.4039059065
 30
0.0
 40
0.7000000000000086
100
AcDbArc
 50
90.0
 51
135.0
  0
LINE
  5
157
330
1F
100
AcDbEntity
  8
0
  6
Continuous
 62
     7
370
    25
100
AcDbLine
 10
175.331189962
 20
33.1039059065
 30
0.0
 11
170.3560824737
 21
33.1039059065
 31
0.0
  0
ARC
  5
158
330
1F
100
AcDbEntity
  8
0
  6
Continuous
 62
     7
370
    25
100
AcDbCircle
 10
175.331189962
 20
32.4039059065
 30
0.0
 40
0.6999999999999957
100
AcDbArc
 50
0.0
 51
90.0
  0
LINE
  5
159
330
1F
100
AcDbEntity
  8
0
  6
Continuous
 62
     7
370
    25
100
AcDbLine
 10
176.031189962
 20
31.0025064503
 30
0.0
 11
176.031189962
 21
32.4039059065
 31
0.0
  0
ARC
  5
15A
330
1F
100
AcDbEntity
  8
0
  6
Continuous
 62
     7
370
    25
100
AcDbCircle
 10
175.331189962
 20
31.0025064503
 30
0.0
 40
0.6999999999999993
100
AcDbArc
 50
270.0
 51
0.0
  0
LINE
  5
15B
330
1F
100
AcDbEntity
  8
0
  6
Continuous
 62
     7
370
    25
100
AcDbLine
 10
173.9760204893
 20
30.3025064503
 30
0.0
 11
175.331189962
 21
30.3025064503
 31
0.0
  0
LINE
  5
15C
330
1F
100
AcDbEntity
  8
0
  6
Continuous
 62
     7
370
    25
100
AcDbLine
 10
173.9760204893
 20
27.6088359569
 30
0.0
 11
173.9760204893
 21
30.3025064503
 31
0.0
  0
LINE
  5
15D
330
1F
100
AcDbEntity
  8
0
  6
Continuous
 62
     7
370
    25
100
AcDbLine
 10
178.5458331928
 20
27.6088359569
 30
0.0
 11
173.9760204893
 21
27.6088359569
 31
0.0
  0
LINE
  5
15E
330
1F
100
AcDbEntity
  8
0
  6
Continuous
 62
     7
370
    25
100
AcDbLine
 10
178.5458331928
 20
28.6764392946
 30
0.0
 11
178.5458331928
 21
27.6088359569
 31
0.0
  0
LINE
  5
15F
330
1F
100
AcDbEntity
  8
0
  6
Continuous
 62
     7
370
    25
100
AcDbLine
 10
180.0
 20
28.6764392946
 30
0.0
 11
178.5458331928
 21
28.6764392946
 31
0.0
  0
LINE
  5
160
330
1F
100
AcDbEntity
  8
0
  6
Continuous
 62
     7
370
    25
100
AcDbLine
 10
180.0
 20
36.9633561753
 30
0.0
 11
180.0
 21
28.6764392946
 31
0.0
  0
LINE
  5
161
330
1F
100
AcDbEntity
  8
0
  6
Continuous
 62
     7
370
    25
100
AcDbLine
 10
179.2729165964
 20
36.9633561753
 30
0.0
 11
180.0
 21
36.9633561753
 31
0.0
  0
LINE
  5
162
330
1F
100
AcDbEntity
  8
0
  6
Continuous
 62
     7
370
    25
100
AcDbLine
 10
179.2729165964
 20
53.0366438247
 30
0.0
 11
179.2729165964
 21
36.9633561753
 31
0.0
  0
LINE
  5
163
330
1F
100
AcDbEntity
  8
0
  6
Continuous
 62
     7
370
    25
100
AcDbLine
 10
179.2729165964
 20
53.0366438247
 30
0.0
 11
180.0
 21
53.0366438247
 31
0.0
  0
LINE
  5
164
330
1F
100
AcDbEntity
  8
0
  6
Continuous
 62
     7
370
    25
100
AcDbLine
 10
180.0
 20
53.0366438247
 30
0.0
 11
180.0
 21
61.3235607054
 31
0.0
  0
LINE
  5
165
330
1F
100
AcDbEntity
  8
0
  6
Continuous
 62
     7
370
    25
100
AcDbLine
 10
180.0
 20
61.3235607054
 30
0.0
 11
178.5458331928
 21
61.3235607054
 31
0.0
  0
LINE
  5
166
330
1F
100
AcDbEntity
  8
0
  6
Continuous
 62
     7
370
    25
100
AcDbLine
 10
178.5458331928
 20
61.3235607054
 30
0.0
 11
178.5458331928
 21
62.3911640431
 31
0.0
  0
LINE
  5
167
330
1F
100
AcDbEntity
  8
0
  6
Continuous
 62
     7
370
    25
100
AcDbLine
 10
178.5458331928
 20
62.3911640431
 30
0.0
 11
173.9760204893
 21
62.3911640431
 31
0.0
  0
LINE
  5
168
330
1F
100
AcDbEntity
  8
0
  6
Continuous
 62
     7
370
    25
100
AcDbLine
 10
173.9760204893
 20
62.3911640431
 30
0.0
 11
173.9760204893
 21
59.6974935497
 31
0.0
  0
LINE
  5
169
330
1F
100
AcDbEntity
  8
0
  6
Continuous
 62
     7
370
    25
100
AcDbLine
 10
173.9760204893
 20
59.6974935497
 30
0.0
 11
175.331189962
 21
59.6974935497
 31
0.0
  0
ARC
  5
16A
330
1F
100
AcDbEntity
  8
0
  6
Continuous
 62
     7
370
    25
100
AcDbCircle
 10
175.331189962
 20
58.9974935497
 30
0.0
 40
0.7000000000000028
100
AcDbArc
 50
0.0
 51
90.0
  0
LINE
  5
16B
330
1F
100
AcDbEntity
  8
0
  6
Continuous
 62
     7
370
    25
100
AcDbLine
 10
176.031189962
 20
58.9974935497
 30
0.0
 11
176.031189962
 21
57.5960940935
 31
0.0
  0
ARC
  5
16C
330
1F
100
AcDbEntity
  8
0
  6
Continuous
 62
     7
370
    25
100
AcDbCircle
 10
175.331189962
 20
57.5960940935
 30
0.0
 40
0.6999999999999957
100
AcDbArc
 50
270.0
 51
0.0
  0
LINE
  5
16D
330
1F
100
AcDbEntity
  8
0
  6
Continuous
 62
     7
370
    25
100
AcDbLine
 10
175.331189962
 20
56.8960940935
 30
0.0
 11
170.3560824737
 21
56.8960940935
 31
0.0
  0
ARC
  5
16E
330
1F
100
AcDbEntity
  8
0
  6
Continuous
 62
     7
370
    25
100
AcDbCircle
 10
170.3560824737
 20
57.5960940935
 30
0.0
 40
0.70000000000001
100
AcDbArc
 50
225.0
 51
270.0
  0
LINE
  5
16F
330
1F
100
AcDbEntity
  8
0
  6
Continuous
 62
     7
370
    25
100
AcDbLine
 10
169.8611077269
 20
57.1011193466
 30
0.0
 11
166.0316204844
 21
60.9306065891
 31
0.0
  0
ARC
  5
170
330
1F
100
AcDbEntity
  8
0
  6
Continuous
 62
     7
370
    25
100
AcDbCircle
 10
166.5265952313
 20
61.4255813359
 30
0.0
 40
0.6999999999999935
100
AcDbArc
 50
180.0
 51
225.0
  0
LINE
  5
171
330
1F
100
AcDbEntity
  8
0
  6
Continuous
 62
     7
370
    25
100
AcDbLine
 10
165.8265952313
 20
61.4255813359
 30
0.0
 11
165.8265952313
 21
66.4205532864
 31
0.0
  0
LINE
  5
172
330
1F
100
AcDbEntity
  8
0
  6
Continuous
 62
     7
370
    25
100
AcDbLine
 10
165.8265952313
 20
66.4205532864
 30
0.0
 11
165.1263141038
 21
67.4911640431
 31
0.0
  0
LINE
  5
173
330
1F
100
AcDbEntity
  8
0
  6
Continuous
 62
     7
370
    25
100
AcDbLine
 10
165.1263141038
 20
67.4911640431
 30
0.0
 11
165.8265952313
 21
68.5617747998
 31
0.0
  0
LINE
  5
174
330
1F
100
AcDbEntity
  8
0
  6
Continuous
 62
     7
370
    25
100
AcDbLine
 10
165.8265952313
 20
68.5617747998
 30
0.0
 11
165.8265952313
 21
73.5567467503
 31
0.0
  0
ARC
  5
175
330
1F
100
AcDbEntity
  8
0
  6
Continuous
 62
     7
370
    25
100
AcDbCircle
 10
166.5265952313
 20
73.5567467503
 30
0.0
 40
0.700000000000017
100
AcDbArc
 50
135.0
 51
180.0
  0
LINE
  5
176
330
1F
100
AcDbEntity
  8
0
  6
Continuous
 62
     7
370
    25
100
AcDbLine
 10
166.0316204844
 20
74.0517214971
 30
0.0
 11
169.8611077269
 21
77.8812087396
 31
0.0
  0
ARC
  5
177
330
1F
100
AcDbEntity
  8
0
  6
Continuous
 62
     7
370
    25
100
AcDbCircle
 10
170.3560824737
 20
77.3862339928
 30
0.0
 40
0.7000000000000028
100
AcDbArc
 50
90.0
 51
135.0
  0
LINE
  5
178
330
1F
100
AcDbEntity
  8
0
  6
Continuous
 62
     7
370
    25
100
AcDbLine
 10
170.3560824737
 20
78.0862339928
 30
0.0
 11
175.331189962
 21
78.0862339928
 31
0.0
  0
ARC
  5
179
330
1F
100
AcDbEntity
  8
0
  6
Continuous
 62
     7
370
    25
100
AcDbCircle
 10
175.331189962
 20
77.3862339928
 30
0.0
 40
0.7000000000000028
100
AcDbArc
 50
360.0
 51
90.0
  0
LINE
  5
17A
330
1F
100
AcDbEntity
  8
0
  6
Continuous
 62
     7
370
    25
100
AcDbLine
 10
176.031189962
 20
77.3862339928
 30
0.0
 11
176.031189962
 21
75.9848345365
 31
0.0
  0
ARC
  5
17B
330
1F
100
AcDbEntity
  8
0
  6
Continuous
 62
     7
370
    25
100
AcDbCircle
 10
175.331189962
 20
75.9848345365
 30
0.0
 40
0.6999999999999886
100
AcDbArc
 50
270.0
 51
0.0
  0
LINE
  5
17C
330
1F
100
AcDbEntity
  8
0
  6
Continuous
 62
     7
370
    25
100
AcDbLine
 10
175.331189962
 20
75.2848345365
 30
0.0
 11
173.9760204893
 21
75.2848345365
 31
0.0
  0
LINE
  5
17D
330
1F
100
AcDbEntity
  8
0
  6
Continuous
 62
     7
370
    25
100
AcDbLine
 10
173.9760204893
 20
75.2848345365
 30
0.0
 11
173.9760204893
 21
72.5911640431
 31
0.0
  0
LINE
  5
17E
330
1F
100
AcDbEntity
  8
0
  6
Continuous
 62
     7
370
    25
100
AcDbLine
 10
173.9760204893
 20
72.5911640431
 30
0.0
 11
178.5458331928
 21
72.5911640431
 31
0.0
  0
LINE
  5
17F
330
1F
100
AcDbEntity
  8
0
  6
Continuous
 62
     7
370
    25
100
AcDbLine
 10
178.5458331928
 20
72.5911640431
 30
0.0
 11
178.5458331928
 21
73.6587673809
 31
0.0
  0
LINE
  5
180
330
1F
100
AcDbEntity
  8
0
  6
Continuous
 62
     7
370
    25
100
AcDbLine
 10
178.5458331928
 20
73.6587673809
 30
0.0
 11
180.0
 21
73.6587673809
 31
0.0
  0
LINE
  5
181
330
1F
100
AcDbEntity
  8
0
  6
Continuous
 62
     7
370
    25
100
AcDbLine
 10
180.0
 20
73.6587673809
 30
0.0
 11
180.0
 21
87.5
 31
0.0
  0
ARC
  5
182
330
1F
100
AcDbEntity
  8
0
  6
Continuous
 62
     7
370
    25
100
AcDbCircle
 10
177.5
 20
87.5
 30
0.0
 40
2.5
100
AcDbArc
 50
360.0
 51
90.0
  0
LINE
  5
183
330
1F
100
AcDbEntity
  8
0
  6
Continuous
 62
     7
370
    25
100
AcDbLine
 10
177.5
 20
90.0
 30
0.0
 11
163.6587673809
 21
90.0
 31
0.0
  0
LINE
  5
184
330
1F
100
AcDbEntity
  8
0
  6
Continuous
 62
     7
370
    25
100
AcDbLine
 10
163.6587673809
 20
90.0
 30
0.0
 11
163.6587673809
 21
88.5458331928
 31
0.0
  0
LINE
  5
185
330
1F
100
AcDbEntity
  8
0
  6
Continuous
 62
     7
370
    25
100
AcDbLine
 10
163.6587673809
 20
88.5458331928
 30
0.0
 11
162.5911640431
 21
88.5458331928
 31
0.0
  0
LINE
  5
186
330
1F
100
AcDbEntity
  8
0
  6
Continuous
 62
     7
370
    25
100
AcDbLine
 10
162.5911640431
 20
88.5458331928
 30
0.0
 11
162.5911640431
 21
83.9760204893
 31
0.0
  0
LINE
  5
187
330
1F
100
AcDbEntity
  8
0
  6
Continuous
 62
     7
370
    25
100
AcDbLine
 10
162.5911640431
 20
83.9760204893
 30
0.0
 11
165.2848345365
 21
83.9760204893
 31
0.0
  0
LINE
  5
188
330
1F
100
AcDbEntity
  8
0
  6
Continuous
 62
     7
370
    25
100
AcDbLine
 10
165.2848345365
 20
83.9760204893
 30
0.0
 11
165.2848345365
 21
85.331189962
 31
0.0
  0
ARC
  5
189
330
1F
100
AcDbEntity
  8
0
  6
Continuous
 62
     7
370
    25
100
AcDbCircle
 10
165.9848345365
 20
85.331189962
 30
0.0
 40
0.6999999999999886
100
AcDbArc
 50
90.0
 51
180.0
  0
LINE
  5
18A
330
1F
100
AcDbEntity
  8
0
  6
Continuous
 62
     7
370
    25
100
AcDbLine
 10
165.9848345365
 20
86.031189962
 30
0.0
 11
167.3862339928
 21
86.031189962
 31
0.0
  0
ARC
  5
18B
330
1F
100
AcDbEntity
  8
0
  6
Continuous
 62
     7
370
    25
100
AcDbCircle
 10
167.3862339928
 20
85.331189962
 30
0.0
 40
0.700000000000017
100
AcDbArc
 50
360.0
 51
90.0
  0
LINE
  5
18C
330
1F
100
AcDbEntity
  8
0
  6
Continuous
 62
     7
370
    25
100
AcDbLine
 10
168.0862339928
 20
85.331189962
 30
0.0
 11
168.0862339928
 21
80.3560824737
 31
0.0
  0
ARC
  5
18D
330
1F
100
AcDbEntity
  8
0
  6
Continuous
 62
     7
370
    25
100
AcDbCircle
 10
167.3862339928
 20
80.3560824737
 30
0.0
 40
0.7000000000000455
100
AcDbArc
 50
315.0
 51
360.0
  0
LINE
  5
18E
330
1F
100
AcDbEntity
  8
0
  6
Continuous
 62
     7
370
    25
100
AcDbLine
 10
167.8812087396
 20
79.8611077269
 30
0.0
 11
164.0517214971
 21
76.0316204844
 31
0.0
  0
ARC
  5
18F
330
1F
100
AcDbEntity
  8
0
  6
Continuous
 62
     7
370
    25
100
AcDbCircle
 10
163.5567467503
 20
76.5265952313
 30
0.0
 40
0.7000000000000237
100
AcDbArc
 50
270.0
 51
315.0
  0
LINE
  5
190
330
1F
100
AcDbEntity
  8
0
  6
Continuous
 62
     7
370
    25
100
AcDbLine
 10
163.5567467503
 20
75.8265952313
 30
0.0
 11
158.5617747998
 21
75.8265952313
 31
0.0
  0
LINE
  5
191
330
1F
100
AcDbEntity
  8
0
  6
Continuous
 62
     7
370
    25
100
AcDbLine
 10
158.5617747998
 20
75.8265952313
 30
0.0
 11
157.4911640431
 21
75.1263141038
 31
0.0
  0
LINE
  5
192
330
1F
100
AcDbEntity
  8
0
  6
Continuous
 62
     7
370
    25
100
AcDbLine
 10
157.4911640431
 20
75.1263141038
 30
0.0
 11
156.4205532864
 21
75.8265952313
 31
0.0
  0
LINE
  5
193
330
1F
100
AcDbEntity
  8
0
  6
Continuous
 62
     7
370
    25
100
AcDbLine
 10
156.4205532864
 20
75.8265952313
 30
0.0
 11
151.4255813359
 21
75.8265952313
 31
0.0
  0
ARC
  5
194
330
1F
100
AcDbEntity
  8
0
  6
Continuous
 62
     7
370
    25
100
AcDbCircle
 10
151.4255813359
 20
76.5265952313
 30
0.0
 40
0.6999999999999744
100
AcDbArc
 50
225.0
 51
270.0
  0
LINE
  5
195
330
1F
100
AcDbEntity
  8
0
  6
Continuous
 62
     7
370
    25
100
AcDbLine
 10
150.9306065891
 20
76.0316204844
 30
0.0
 11
147.1011193466
 21
79.8611077269
 31
0.0
  0
ARC
  5
196
330
1F
100
AcDbEntity
  8
0
  6
Continuous
 62
     7
370
    25
100
AcDbCircle
 10
147.5960940935
 20
80.3560824737
 30
0.0
 40
0.6999999999999935
100
AcDbArc
 50
180.0
 51
225.0
  0
LINE
  5
197
330
1F
100
AcDbEntity
  8
0
  6
Continuous
 62
     7
370
    25
100
AcDbLine
 10
146.8960940935
 20
80.3560824737
 30
0.0
 11
146.8960940935
 21
85.331189962
 31
0.0
  0
ARC
  5
198
330
1F
100
AcDbEntity
  8
0
  6
Continuous
 62
     7
370
    25
100
AcDbCircle
 10
147.5960940935
 20
85.331189962
 30
0.0
 40
0.700000000000017
100
AcDbArc
 50
90.0
 51
180.0
  0
LINE
  5
199
330
1F
100
AcDbEntity
  8
0
  6
Continuous
 62
     7
370
    25
100
AcDbLine
 10
147.5960940935
 20
86.031189962
 30
0.0
 11
148.9974935497
 21
86.031189962
 31
0.0
  0
ARC
  5
19A
330
1F
100
AcDbEntity
  8
0
  6
Continuous
 62
     7
370
    25
100
AcDbCircle
 10
148.9974935497
 20
85.331189962
 30
0.0
 40
0.700000000000017
100
AcDbArc
 50
0.0
 51
90.0
  0
LINE
  5
19B
330
1F
100
AcDbEntity
  8
0
  6
Continuous
 62
     7
370
    25
100
AcDbLine
 10
149.6974935497
 20
85.331189962
 30
0.0
 11
149.6974935497
 21
83.9760204893
 31
0.0
  0
LINE
  5
19C
330
1F
100
AcDbEntity
  8
0
  6
Continuous
 62
     7
370
    25
100
AcDbLine
 10
149.6974935497
 20
83.9760204893
 30
0.0
 11
152.3911640431
 21
83.9760204893
 31
0.0
  0
LINE
  5
19D
330
1F
100
AcDbEntity
  8
0
  6
Continuous
 62
     7
370
    25
100
AcDbLine
 10
152.3911640431
 20
83.9760204893
 30
0.0
 11
152.3911640431
 21
88.5458331928
 31
0.0
  0
LINE
  5
19E
330
1F
100
AcDbEntity
  8
0
  6
Continuous
 62
     7
370
    25
100
AcDbLine
 10
152.3911640431
 20
88.5458331928
 30
0.0
 11
151.3235607054
 21
88.5458331928
 31
0.0
  0
LINE
  5
19F
330
1F
100
AcDbEntity
  8
0
  6
Continuous
 62
     7
370
    25
100
AcDbLine
 10
151.3235607054
 20
88.5458331928
 30
0.0
 11
151.3235607054
 21
90.0
 31
0.0
  0
LINE
  5
1A0
330
1F
100
AcDbEntity
  8
0
  6
Continuous
 62
     7
370
    25
100
AcDbLine
 10
151.3235607054
 20
90.0
 30
0.0
 11
143.0366438247
 21
90.0
 31
0.0
  0
LINE
  5
1A1
330
1F
100
AcDbEntity
  8
0
  6
Continuous
 62
     7
370
    25
100
AcDbLine
 10
143.0366438247
 20
90.0
 30
0.0
 11
143.0366438247
 21
89.2729165964
 31
0.0
  0
LINE
  5
1A2
330
1F
100
AcDbEntity
  8
0
  6
Continuous
 62
     7
370
    25
100
AcDbLine
 10
143.0366438247
 20
89.2729165964
 30
0.0
 11
126.9633561753
 21
89.2729165964
 31
0.0
  0
LINE
  5
1A3
330
1F
100
AcDbEntity
  8
0
  6
Continuous
 62
     7
370
    25
100
AcDbLine
 10
126.9633561753
 20
89.2729165964
 30
0.0
 11
126.9633561753
 21
90.0
 31
0.0
  0
LINE
  5
1A4
330
1F
100
AcDbEntity
  8
0
  6
Continuous
 62
     7
370
    25
100
AcDbLine
 10
126.9633561753
 20
90.0
 30
0.0
 11
118.6764392946
 21
90.0
 31
0.0
  0
LINE
  5
1A5
330
1F
100
AcDbEntity
  8
0
  6
Continuous
 62
     7
370
    25
100
AcDbLine
 10
118.6764392946
 20
90.0
 30
0.0
 11
118.6764392946
 21
88.5458331928
 31
0.0
  0
LINE
  5
1A6
330
1F
100
AcDbEntity
  8
0
  6
Continuous
 62
     7
370
    25
100
AcDbLine
 10
118.6764392946
 20
88.5458331928
 30
0.0
 11
117.6088359569
 21
88.5458331928
 31
0.0
  0
LINE
  5
1A7
330
1F
100
AcDbEntity
  8
0
  6
Continuous
 62
     7
370
    25
100
AcDbLine
 10
117.6088359569
 20
88.5458331928
 30
0.0
 11
117.6088359569
 21
83.9760204893
 31
0.0
  0
LINE
  5
1A8
330
1F
100
AcDbEntity
  8
0
  6
Continuous
 62
     7
370
    25
100
AcDbLine
 10
117.6088359569
 20
83.9760204893
 30
0.0
 11
120.3025064503
 21
83.9760204893
 31
0.0
  0
LINE
  5
1A9
330
1F
100
AcDbEntity
  8
0
  6
Continuous
 62
     7
370
    25
100
AcDbLine
 10
120.3025064503
 20
83.9760204893
 30
0.0
 11
120.3025064503
 21
85.331189962
 31
0.0
  0
ARC
  5
1AA
330
1F
100
AcDbEntity
  8
0
  6
Continuous
 62
     7
370
    25
100
AcDbCircle
 10
121.0025064503
 20
85.331189962
 30
0.0
 40
0.6999999999999886
100
AcDbArc
 50
90.0
 51
180.0
  0
LINE
  5
1AB
330
1F
100
AcDbEntity
  8
0
  6
Continuous
 62
     7
370
    25
100
AcDbLine
 10
121.0025064503
 20
86.031189962
 30
0.0
 11
122.4039059065
 21
86.031189962
 31
0.0
  0
ARC
  5
1AC
330
1F
100
AcDbEntity
  8
0
  6
Continuous
 62
     7
370
    25
100
AcDbCircle
 10
122.4039059065
 20
85.331189962
 30
0.0
 40
0.7000000000000028
100
AcDbArc
 50
0.0
 51
90.0
  0
LINE
  5
1AD
330
1F
100
AcDbEntity
  8
0
  6
Continuous
 62
     7
370
    25
100
AcDbLine
 10
123.1039059065
 20
85.331189962
 30
0.0
 11
123.1039059065
 21
80.3560824737
 31
0.0
  0
ARC
  5
1AE
330
1F
100
AcDbEntity
  8
0
  6
Continuous
 62
     7
370
    25
100
AcDbCircle
 10
122.4039059065
 20
80.3560824737
 30
0.0
 40
0.6999999999999835
100
AcDbArc
 50
315.0
 51
0.0
  0
LINE
  5
1AF
330
1F
100
AcDbEntity
  8
0
  6
Continuous
 62
     7
370
    25
100
AcDbLine
 10
122.8988806534
 20
79.8611077269
 30
0.0
 11
119.0693934109
 21
76.0316204844
 31
0.0
  0
ARC
  5
1B0
330
1F
100
AcDbEntity
  8
0
  6
Continuous
 62
     7
370
    25
100
AcDbCircle
 10
118.5744186641
 20
76.5265952313
 30
0.0
 40
0.6999999999999886
100
AcDbArc
 50
270.0
 51
315.0
  0
LINE
  5
1B1
330
1F
100
AcDbEntity
  8
0
  6
Continuous
 62
     7
370
    25
100
AcDbLine
 10
118.5744186641
 20
75.8265952313
 30
0.0
 11
113.5794467136
 21
75.8265952313
 31
0.0
  0
LINE
  5
1B2
330
1F
100
AcDbEntity
  8
0
  6
Continuous
 62
     7
370
    25
100
AcDbLine
 10
113.5794467136
 20
75.8265952313
 30
0.0
 11
112.5088359569
 21
75.1263141038
 31
0.0
  0
LINE
  5
1B3
330
1F
100
AcDbEntity
  8
0
  6
Continuous
 62
     7
370
    25
100
AcDbLine
 10
112.5088359569
 20
75.1263141038
 30
0.0
 11
111.4382252002
 21
75.8265952313
 31
0.0
  0
LINE
  5
1B4
330
1F
100
AcDbEntity
  8
0
  6
Continuous
 62
     7
370
    25
100
AcDbLine
 10
111.4382252002
 20
75.8265952313
 30
0.0
 11
106.4432532497
 21
75.8265952313
 31
0.0
  0
ARC
  5
1B5
330
1F
100
AcDbEntity
  8
0
  6
Continuous
 62
     7
370
    25
100
AcDbCircle
 10
106.4432532497
 20
76.5265952313
 30
0.0
 40
0.7000000000000137
100
AcDbArc
 50
225.0
 51
270.0
  0
LINE
  5
1B6
330
1F
100
AcDbEntity
  8
0
  6
Continuous
 62
     7
370
    25
100
AcDbLine
 10
105.9482785029
 20
76.0316204844
 30
0.0
 11
102.1187912604
 21
79.8611077269
 31
0.0
  0
ARC
  5
1B7
330
1F
100
AcDbEntity
  8
0
  6
Continuous
 62
     7
370
    25
100
AcDbCircle
 10
102.6137660072
 20
80.3560824737
 30
0.0
 40
0.7000000000000313
100
AcDbArc
 50
180.0
 51
225.0
  0
LINE
  5
1B8
330
1F
100
AcDbEntity
  8
0
  6
Continuous
 62
     7
370
    25
100
AcDbLine
 10
101.9137660072
 20
80.3560824737
 30
0.0
 11
101.9137660072
 21
85.331189962
 31
0.0
  0
ARC
  5
1B9
330
1F
100
AcDbEntity
  8
0
  6
Continuous
 62
     7
370
    25
100
AcDbCircle
 10
102.6137660072
 20
85.331189962
 30
0.0
 40
0.700000000000017
100
AcDbArc
 50
90.0
 51
180.0
  0
LINE
  5
1BA
330
1F
100
AcDbEntity
  8
0
  6
Continuous
 62
     7
370
    25
100
AcDbLine
 10
102.6137660072
 20
86.031189962
 30
0.0
 11
104.0151654635
 21
86.031189962
 31
0.0
  0
ARC
  5
1BB
330
1F
100
AcDbEntity
  8
0
  6
Continuous
 62
     7
370
    25
100
AcDbCircle
 10
104.0151654635
 20
85.331189962
 30
0.0
 40
0.7000000000000028
100
AcDbArc
 50
0.0
 51
90.0
  0
LINE
  5
1BC
330
1F
100
AcDbEntity
  8
0
  6
Continuous
 62
     7
370
    25
100
AcDbLine
 10
104.7151654635
 20
85.331189962
 30
0.0
 11
104.7151654635
 21
83.9760204893
 31
0.0
  0
LINE
  5
1BD
330
1F
100
AcDbEntity
  8
0
  6
Continuous
 62
     7
370
    25
100
AcDbLine
 10
104.7151654635
 20
83.9760204893
 30
0.0
 11
107.4088359569
 21
83.9760204893
 31
0.0
  0
LINE
  5
1BE
330
1F
100
AcDbEntity
  8
0
  6
Continuous
 62
     7
370
    25
100
AcDbLine
 10
107.4088359569
 20
83.9760204893
 30
0.0
 11
107.4088359569
 21
88.5458331928
 31
0.0
  0
LINE
  5
1BF
330
1F
100
AcDbEntity
  8
0
  6
Continuous
 62
     7
370
    25
100
AcDbLine
 10
107.4088359569
 20
88.5458331928
 30
0.0
 11
106.3412326191
 21
88.5458331928
 31
0.0
  0
LINE
  5
1C0
330
1F
100
AcDbEntity
  8
0
  6
Continuous
 62
     7
370
    25
100
AcDbLine
 10
106.3412326191
 20
88.5458331928
 30
0.0
 11
106.3412326191
 21
90.0
 31
0.0
  0
LINE
  5
1C1
330
1F
100
AcDbEntity
  8
0
  6
Continuous
 62
     7
370
    25
100
AcDbLine
 10
106.3412326191
 20
90.0
 30
0.0
 11
98.0889761932
 21
90.0
 31
0.0
  0
LINE
  5
1C2
330
1F
100
AcDbEntity
  8
0
  6
Continuous
 62
     7
370
    25
100
AcDbLine
 10
98.0889761932
 20
90.0
 30
0.0
 11
98.0889761932
 21
89.2729165964
 31
0.0
  0
LINE
  5
1C3
330
1F
100
AcDbEntity
  8
0
  6
Continuous
 62
     7
370
    25
100
AcDbLine
 10
81.9110238068
 20
89.2729165964
 30
0.0
 11
98.0889761932
 21
89.2729165964
 31
0.0
  0
LINE
  5
1C4
330
1F
100
AcDbEntity
  8
0
  6
Continuous
 62
     7
370
    25
100
AcDbLine
 10
81.9110238068
 20
90.0
 30
0.0
 11
81.9110238068
 21
89.2729165964
 31
0.0
  0
LINE
  5
1C5
330
1F
100
AcDbEntity
  8
0
  6
Continuous
 62
     7
370
    25
100
AcDbLine
 10
73.6587673809
 20
90.0
 30
0.0
 11
81.9110238068
 21
90.0
 31
0.0
  0
LINE
  5
1C6
330
1F
100
AcDbEntity
  8
0
  6
Continuous
 62
     7
370
    25
100
AcDbLine
 10
73.6587673809
 20
88.5458331928
 30
0.0
 11
73.6587673809
 21
90.0
 31
0.0
  0
LINE
  5
1C7
330
1F
100
AcDbEntity
  8
0
  6
Continuous
 62
     7
370
    25
100
AcDbLine
 10
72.5911640431
 20
88.5458331928
 30
0.0
 11
73.6587673809
 21
88.5458331928
 31
0.0
  0
LINE
  5
1C8
330
1F
100
AcDbEntity
  8
0
  6
Continuous
 62
     7
370
    25
100
AcDbLine
 10
72.5911640431
 20
83.9760204893
 30
0.0
 11
72.5911640431
 21
88.5458331928
 31
0.0
  0
LINE
  5
1C9
330
1F
100
AcDbEntity
  8
0
  6
Continuous
 62
     7
370
    25
100
AcDbLine
 10
75.2848345365
 20
83.9760204893
 30
0.0
 11
72.5911640431
 21
83.9760204893
 31
0.0
  0
LINE
  5
1CA
330
1F
100
AcDbEntity
  8
0
  6
Continuous
 62
     7
370
    25
100
AcDbLine
 10
75.2848345365
 20
85.331189962
 30
0.0
 11
75.2848345365
 21
83.9760204893
 31
0.0
  0
ARC
  5
1CB
330
1F
100
AcDbEntity
  8
0
  6
Continuous
 62
     7
370
    25
100
AcDbCircle
 10
75.9848345365
 20
85.331189962
 30
0.0
 40
0.700000000000017
100
AcDbArc
 50
90.0
 51
180.0
  0
LINE
  5
1CC
330
1F
100
AcDbEntity
  8
0
  6
Continuous
 62
     7
370
    25
100
AcDbLine
 10
77.3862339928
 20
86.031189962
 30
0.0
 11
75.9848345365
 21
86.031189962
 31
0.0
  0
ARC
  5
1CD
330
1F
100
AcDbEntity
  8
0
  6
Continuous
 62
     7
370
    25
100
AcDbCircle
 10
77.3862339928
 20
85.331189962
 30
0.0
 40
0.700000000000017
100
AcDbArc
 50
0.0
 51
90.0
  0
LINE
  5
1CE
330
1F
100
AcDbEntity
  8
0
  6
Continuous
 62
     7
370
    25
100
AcDbLine
 10
78.0862339928
 20
80.3560824737
 30
0.0
 11
78.0862339928
 21
85.331189962
 31
0.0
  0
ARC
  5
1CF
330
1F
100
AcDbEntity
  8
0
  6
Continuous
 62
     7
370
    25
100
AcDbCircle
 10
77.3862339928
 20
80.3560824737
 30
0.0
 40
0.700000000000017
100
AcDbArc
 50
315.0
 51
0.0
  0
LINE
  5
1D0
330
1F
100
AcDbEntity
  8
0
  6
Continuous
 62
     7
370
    25
100
AcDbLine
 10
74.0517214971
 20
76.0316204844
 30
0.0
 11
77.8812087396
 21
79.8611077269
 31
0.0
  0
ARC
  5
1D1
330
1F
100
AcDbEntity
  8
0
  6
Continuous
 62
     7
370
    25
100
AcDbCircle
 10
73.5567467503
 20
76.5265952313
 30
0.0
 40
0.7000000000000036
100
AcDbArc
 50
270.0
 51
315.0
  0
LINE
  5
1D2
330
1F
100
AcDbEntity
  8
0
  6
Continuous
 62
     7
370
    25
100
AcDbLine
 10
68.5617747998
 20
75.8265952313
 30
0.0
 11
73.5567467503
 21
75.8265952313
 31
0.0
  0
LINE
  5
1D3
330
1F
100
AcDbEntity
  8
0
  6
Continuous
 62
     7
370
    25
100
AcDbLine
 10
67.4911640431
 20
75.1263141038
 30
0.0
 11
68.5617747998
 21
75.8265952313
 31
0.0
  0
LINE
  5
1D4
330
1F
100
AcDbEntity
  8
0
  6
Continuous
 62
     7
370
    25
100
AcDbLine
 10
66.4205532864
 20
75.8265952313
 30
0.0
 11
67.4911640431
 21
75.1263141038
 31
0.0
  0
LINE
  5
1D5
330
1F
100
AcDbEntity
  8
0
  6
Continuous
 62
     7
370
    25
100
AcDbLine
 10
61.4255813359
 20
75.8265952313
 30
0.0
 11
66.4205532864
 21
75.8265952313
 31
0.0
  0
ARC
  5
1D6
330
1F
100
AcDbEntity
  8
0
  6
Continuous
 62
     7
370
    25
100
AcDbCircle
 10
61.4255813359
 20
76.5265952313
 30
0.0
 40
0.6999999999999602
100
AcDbArc
 50
225.0
 51
270.0
  0
LINE
  5
1D7
330
1F
100
AcDbEntity
  8
0
  6
Continuous
 62
     7
370
    25
100
AcDbLine
 10
57.1011193466
 20
79.8611077269
 30
0.0
 11
60.9306065891
 21
76.0316204844
 31
0.0
  0
ARC
  5
1D8
330
1F
100
AcDbEntity
  8
0
  6
Continuous
 62
     7
370
    25
100
AcDbCircle
 10
57.5960940935
 20
80.3560824737
 30
0.0
 40
0.6999999999999815
100
AcDbArc
 50
180.0
 51
225.0
  0
LINE
  5
1D9
330
1F
100
AcDbEntity
  8
0
  6
Continuous
 62
     7
370
    25
100
AcDbLine
 10
56.8960940935
 20
85.331189962
 30
0.0
 11
56.8960940935
 21
80.3560824737
 31
0.0
  0
ARC
  5
1DA
330
1F
100
AcDbEntity
  8
0
  6
Continuous
 62
     7
370
    25
100
AcDbCircle
 10
57.5960940935
 20
85.331189962
 30
0.0
 40
0.70000000000001
100
AcDbArc
 50
90.0
 51
180.0
  0
LINE
  5
1DB
330
1F
100
AcDbEntity
  8
0
  6
Continuous
 62
     7
370
    25
100
AcDbLine
 10
58.9974935497
 20
86.031189962
 30
0.0
 11
57.5960940935
 21
86.031189962
 31
0.0
  0
ARC
  5
1DC
330
1F
100
AcDbEntity
  8
0
  6
Continuous
 62
     7
370
    25
100
AcDbCircle
 10
58.9974935497
 20
85.331189962
 30
0.0
 40
0.6999999999999886
100
AcDbArc
 50
360.0
 51
90.0
  0
LINE
  5
1DD
330
1F
100
AcDbEntity
  8
0
  6
Continuous
 62
     7
370
    25
100
AcDbLine
 10
59.6974935497
 20
83.9760204893
 30
0.0
 11
59.6974935497
 21
85.331189962
 31
0.0
  0
LINE
  5
1DE
330
1F
100
AcDbEntity
  8
0
  6
Continuous
 62
     7
370
    25
100
AcDbLine
 10
62.3911640431
 20
83.9760204893
 30
0.0
 11
59.6974935497
 21
83.9760204893
 31
0.0
  0
LINE
  5
1DF
330
1F
100
AcDbEntity
  8
0
  6
Continuous
 62
     7
370
    25
100
AcDbLine
 10
62.3911640431
 20
88.5458331928
 30
0.0
 11
62.3911640431
 21
83.9760204893
 31
0.0
  0
LINE
  5
1E0
330
1F
100
AcDbEntity
  8
0
  6
Continuous
 62
     7
370
    25
100
AcDbLine
 10
61.3235607054
 20
88.5458331928
 30
0.0
 11
62.3911640431
 21
88.5458331928
 31
0.0
  0
LINE
  5
1E1
330
1F
100
AcDbEntity
  8
0
  6
Continuous
 62
     7
370
    25
100
AcDbLine
 10
61.3235607054
 20
90.0
 30
0.0
 11
61.3235607054
 21
88.5458331928
 31
0.0
  0
LINE
  5
1E2
330
1F
100
AcDbEntity
  8
0
  6
Continuous
 62
     7
370
    25
100
AcDbLine
 10
53.0366438247
 20
90.0
 30
0.0
 11
61.3235607054
 21
90.0
 31
0.0
  0
LINE
  5
1E3
330
1F
100
AcDbEntity
  8
0
  6
Continuous
 62
     7
370
    25
100
AcDbLine
 10
53.0366438247
 20
89.2729165964
 30
0.0
 11
53.0366438247
 21
90.0
 31
0.0
  0
LINE
  5
1E4
330
1F
100
AcDbEntity
  8
0
  6
Continuous
 62
     7
370
    25
100
AcDbLine
 10
36.9633561753
 20
89.2729165964
 30
0.0
 11
53.0366438247
 21
89.2729165964
 31
0.0
  0
LINE
  5
1E5
330
1F
100
AcDbEntity
  8
0
  6
Continuous
 62
     7
370
    25
100
AcDbLine
 10
36.9633561753
 20
90.0
 30
0.0
 11
36.9633561753
 21
89.2729165964
 31
0.0
  0
LINE
  5
1E6
330
1F
100
AcDbEntity
  8
0
  6
Continuous
 62
     7
370
    25
100
AcDbLine
 10
28.6764392946
 20
90.0
 30
0.0
 11
36.9633561753
 21
90.0
 31
0.0
  0
LINE
  5
1E7
330
1F
100
AcDbEntity
  8
0
  6
Continuous
 62
     7
370
    25
100
AcDbLine
 10
28.6764392946
 20
88.5458331928
 30
0.0
 11
28.6764392946
 21
90.0
 31
0.0
  0
LINE
  5
1E8
330
1F
100
AcDbEntity
  8
0
  6
Continuous
 62
     7
370
    25
100
AcDbLine
 10
27.6088359569
 20
88.5458331928
 30
0.0
 11
28.6764392946
 21
88.5458331928
 31
0.0
  0
LINE
  5
1E9
330
1F
100
AcDbEntity
  8
0
  6
Continuous
 62
     7
370
    25
100
AcDbLine
 10
27.6088359569
 20
83.9760204893
 30
0.0
 11
27.6088359569
 21
88.5458331928
 31
0.0
  0
LINE
  5
1EA
330
1F
100
AcDbEntity
  8
0
  6
Continuous
 62
     7
370
    25
100
AcDbLine
 10
30.3025064503
 20
83.9760204893
 30
0.0
 11
27.6088359569
 21
83.9760204893
 31
0.0
  0
LINE
  5
1EB
330
1F
100
AcDbEntity
  8
0
  6
Continuous
 62
     7
370
    25
100
AcDbLine
 10
30.3025064503
 20
85.331189962
 30
0.0
 11
30.3025064503
 21
83.9760204893
 31
0.0
  0
ARC
  5
1EC
330
1F
100
AcDbEntity
  8
0
  6
Continuous
 62
     7
370
    25
100
AcDbCircle
 10
31.0025064503
 20
85.331189962
 30
0.0
 40
0.7000000000000028
100
AcDbArc
 50
90.0
 51
180.0
  0
LINE
  5
1ED
330
1F
100
AcDbEntity
  8
0
  6
Continuous
 62
     7
370
    25
100
AcDbLine
 10
32.4039059065
 20
86.031189962
 30
0.0
 11
31.0025064503
 21
86.031189962
 31
0.0
  0
ARC
  5
1EE
330
1F
100
AcDbEntity
  8
0
  6
Continuous
 62
     7
370
    25
100
AcDbCircle
 10
32.4039059065
 20
85.331189962
 30
0.0
 40
0.7000000000000028
100
AcDbArc
 50
0.0
 51
90.0
  0
LINE
  5
1EF
330
1F
100
AcDbEntity
  8
0
  6
Continuous
 62
     7
370
    25
100
AcDbLine
 10
33.1039059065
 20
80.3560824737
 30
0.0
 11
33.1039059065
 21
85.331189962
 31
0.0
  0
ARC
  5
1F0
330
1F
100
AcDbEntity
  8
0
  6
Continuous
 62
     7
370
    25
100
AcDbCircle
 10
32.4039059065
 20
80.3560824737
 30
0.0
 40
0.6999999999999835
100
AcDbArc
 50
315.0
 51
0.0
  0
LINE
  5
1F1
330
1F
100
AcDbEntity
  8
0
  6
Continuous
 62
     7
370
    25
100
AcDbLine
 10
29.0693934109
 20
76.0316204844
 30
0.0
 11
32.8988806534
 21
79.8611077269
 31
0.0
  0
ARC
  5
1F2
330
1F
100
AcDbEntity
  8
0
  6
Continuous
 62
     7
370
    25
100
AcDbCircle
 10
28.5744186641
 20
76.5265952313
 30
0.0
 40
0.6999999999999744
100
AcDbArc
 50
270.0
 51
315.0
  0
LINE
  5
1F3
330
1F
100
AcDbEntity
  8
0
  6
Continuous
 62
     7
370
    25
100
AcDbLine
 10
23.5794467136
 20
75.8265952313
 30
0.0
 11
28.5744186641
 21
75.8265952313
 31
0.0
  0
LINE
  5
1F4
330
1F
100
AcDbEntity
  8
0
  6
Continuous
 62
     7
370
    25
100
AcDbLine
 10
22.5088359569
 20
75.1263141038
 30
0.0
 11
23.5794467136
 21
75.8265952313
 31
0.0
  0
LINE
  5
1F5
330
1F
100
AcDbEntity
  8
0
  6
Continuous
 62
     7
370
    25
100
AcDbLine
 10
21.4382252002
 20
75.8265952313
 30
0.0
 11
22.5088359569
 21
75.1263141038
 31
0.0
  0
LINE
  5
1F6
330
1F
100
AcDbEntity
  8
0
  6
Continuous
 62
     7
370
    25
100
AcDbLine
 10
16.4432532497
 20
75.8265952313
 30
0.0
 11
21.4382252002
 21
75.8265952313
 31
0.0
  0
ARC
  5
1F7
330
1F
100
AcDbEntity
  8
0
  6
Continuous
 62
     7
370
    25
100
AcDbCircle
 10
16.4432532497
 20
76.5265952313
 30
0.0
 40
0.7000000000000028
100
AcDbArc
 50
225.0
 51
270.0
  0
LINE
  5
1F8
330
1F
100
AcDbEntity
  8
0
  6
Continuous
 62
     7
370
    25
100
AcDbLine
 10
12.1187912604
 20
79.8611077269
 30
0.0
 11
15.9482785029
 21
76.0316204844
 31
0.0
  0
ARC
  5
1F9
330
1F
100
AcDbEntity
  8
0
  6
Continuous
 62
     7
370
    25
100
AcDbCircle
 10
12.6137660072
 20
80.3560824737
 30
0.0
 40
0.700000000000033
100
AcDbArc
 50
180.0
 51
225.0
  0
LINE
  5
1FA
330
1F
100
AcDbEntity
  8
0
  6
Continuous
 62
     7
370
    25
100
AcDbLine
 10
11.9137660072
 20
85.331189962
 30
0.0
 11
11.9137660072
 21
80.3560824737
 31
0.0
  0
ARC
  5
1FB
330
1F
100
AcDbEntity
  8
0
  6
Continuous
 62
     7
370
    25
100
AcDbCircle
 10
12.6137660072
 20
85.331189962
 30
0.0
 40
0.700000000000017
100
AcDbArc
 50
90.0
 51
180.0
  0
LINE
  5
1FC
330
1F
100
AcDbEntity
  8
0
  6
Continuous
 62
     7
370
    25
100
AcDbLine
 10
14.0151654635
 20
86.031189962
 30
0.0
 11
12.6137660072
 21
86.031189962
 31
0.0
  0
ARC
  5
1FD
330
1F
100
AcDbEntity
  8
0
  6
Continuous
 62
     7
370
    25
100
AcDbCircle
 10
14.0151654635
 20
85.331189962
 30
0.0
 40
0.7000000000000028
100
AcDbArc
 50
0.0
 51
90.0
  0
LINE
  5
1FE
330
1F
100
AcDbEntity
  8
0
  6
Continuous
 62
     7
370
    25
100
AcDbLine
 10
14.7151654635
 20
83.9760204893
 30
0.0
 11
14.7151654635
 21
85.331189962
 31
0.0
  0
LINE
  5
1FF
330
1F
100
AcDbEntity
  8
0
  6
Continuous
 62
     7
370
    25
100
AcDbLine
 10
17.4088359569
 20
83.9760204893
 30
0.0
 11
14.7151654635
 21
83.9760204893
 31
0.0
  0
LINE
  5
200
330
1F
100
AcDbEntity
  8
0
  6
Continuous
 62
     7
370
    25
100
AcDbLine
 10
17.4088359569
 20
88.5458331928
 30
0.0
 11
17.4088359569
 21
83.9760204893
 31
0.0
  0
LINE
  5
201
330
1F
100
AcDbEntity
  8
0
  6
Continuous
 62
     7
370
    25
100
AcDbLine
 10
16.3412326191
 20
88.5458331928
 30
0.0
 11
17.4088359569
 21
88.5458331928
 31
0.0
  0
LINE
  5
202
330
1F
100
AcDbEntity
  8
0
  6
Continuous
 62
     7
370
    25
100
AcDbLine
 10
16.3412326191
 20
90.0
 30
0.0
 11
16.3412326191
 21
88.5458331928
 31
0.0
  0
LINE
  5
203
330
1F
100
AcDbEntity
  8
0
  6
Continuous
 62
     7
370
    25
100
AcDbLine
 10
2.5
 20
90.0
 30
0.0
 11
16.3412326191
 21
90.0
 31
0.0
  0
ARC
  5
204
330
1F
100
AcDbEntity
  8
0
  6
Continuous
 62
     7
370
    25
100
AcDbCircle
 10
2.5
 20
87.5
 30
0.0
 40
2.5
100
AcDbArc
 50
90.0
 51
180.0
  0
LINE
  5
205
330
1F
100
AcDbEntity
  8
0
  6
Continuous
 62
     7
370
    25
100
AcDbLine
 10
0.0
 20
73.6587673809
 30
0.0
 11
0.0
 21
87.5
 31
0.0
  0
LINE
  5
206
330
1F
100
AcDbEntity
  8
0
  6
Continuous
 62
     7
370
    25
100
AcDbLine
 10
1.4541668072
 20
73.6587673809
 30
0.0
 11
0.0
 21
73.6587673809
 31
0.0
  0
LINE
  5
207
330
1F
100
AcDbEntity
  8
0
  6
Continuous
 62
     7
370
    25
100
AcDbLine
 10
1.4541668072
 20
72.5911640431
 30
0.0
 11
1.4541668072
 21
73.6587673809
 31
0.0
  0
LINE
  5
208
330
1F
100
AcDbEntity
  8
0
  6
Continuous
 62
     7
370
    25
100
AcDbLine
 10
6.0239795107
 20
72.5911640431
 30
0.0
 11
1.4541668072
 21
72.5911640431
 31
0.0
  0
LINE
  5
209
330
1F
100
AcDbEntity
  8
0
  6
Continuous
 62
     7
370
    25
100
AcDbLine
 10
6.0239795107
 20
75.2848345365
 30
0.0
 11
6.0239795107
 21
72.5911640431
 31
0.0
  0
LINE
  5
20A
330
1F
100
AcDbEntity
  8
0
  6
Continuous
 62
     7
370
    25
100
AcDbLine
 10
4.668810038
 20
75.2848345365
 30
0.0
 11
6.0239795107
 21
75.2848345365
 31
0.0
  0
ARC
  5
20B
330
1F
100
AcDbEntity
  8
0
  6
Continuous
 62
     7
370
    25
100
AcDbCircle
 10
4.668810038
 20
75.9848345365
 30
0.0
 40
0.7000000000000002
100
AcDbArc
 50
180.0
 51
270.0
  0
LINE
  5
20C
330
1F
100
AcDbEntity
  8
0
  6
Continuous
 62
     7
370
    25
100
AcDbLine
 10
3.968810038
 20
77.3862339928
 30
0.0
 11
3.968810038
 21
75.9848345365
 31
0.0
  0
ARC
  5
20D
330
1F
100
AcDbEntity
  8
0
  6
Continuous
 62
     7
370
    25
100
AcDbCircle
 10
4.668810038
 20
77.3862339928
 30
0.0
 40
0.700000000000017
100
AcDbArc
 50
90.0
 51
180.0
  0
LINE
  5
20E
330
1F
100
AcDbEntity
  8
0
  6
Continuous
 62
     7
370
    25
100
AcDbLine
 10
9.6439175263
 20
78.0862339928
 30
0.0
 11
4.668810038
 21
78.0862339928
 31
0.0
  0
ARC
  5
20F
330
1F
100
AcDbEntity
  8
0
  6
Continuous
 62
     7
370
    25
100
AcDbCircle
 10
9.6439175263
 20
77.3862339928
 30
0.0
 40
0.7000000000000028
100
AcDbArc
 50
45.0
 51
90.0
  0
LINE
  5
210
330
1F
100
AcDbEntity
  8
0
  6
Continuous
 62
     7
370
    25
100
AcDbLine
 10
13.9683795156
 20
74.0517214971
 30
0.0
 11
10.1388922731
 21
77.8812087396
 31
0.0
  0
ARC
  5
211
330
1F
100
AcDbEntity
  8
0
  6
Continuous
 62
     7
370
    25
100
AcDbCircle
 10
13.4734047687
 20
73.5567467503
 30
0.0
 40
0.7000000000000011
100
AcDbArc
 50
360.0
 51
45.0
  0
LINE
  5
212
330
1F
100
AcDbEntity
  8
0
  6
Continuous
 62
     7
370
    25
100
AcDbLine
 10
14.1734047687
 20
68.5617747998
 30
0.0
 11
14.1734047687
 21
73.5567467503
 31
0.0
  0
LINE
  5
213
330
1F
100
AcDbEntity
  8
0
  6
Continuous
 62
     7
370
    25
100
AcDbLine
 10
14.8736858962
 20
67.4911640431
 30
0.0
 11
14.1734047687
 21
68.5617747998
 31
0.0
  0
LINE
  5
214
330
1F
100
AcDbEntity
  8
0
  6
Continuous
 62
     7
370
    25
100
AcDbLine
 10
14.1734047687
 20
66.4205532864
 30
0.0
 11
14.8736858962
 21
67.4911640431
 31
0.0
  0
LINE
  5
215
330
1F
100
AcDbEntity
  8
0
  6
Continuous
 62
     7
370
    25
100
AcDbLine
 10
14.1734047687
 20
61.4255813359
 30
0.0
 11
14.1734047687
 21
66.4205532864
 31
0.0
  0
ARC
  5
216
330
1F
100
AcDbEntity
  8
0
  6
Continuous
 62
     7
370
    25
100
AcDbCircle
 10
13.4734047687
 20
61.4255813359
 30
0.0
 40
0.700000000000005
100
AcDbArc
 50
315.0
 51
0.0
  0
LINE
  5
217
330
1F
100
AcDbEntity
  8
0
  6
Continuous
 62
     7
370
    25
100
AcDbLine
 10
10.1388922731
 20
57.1011193466
 30
0.0
 11
13.9683795156
 21
60.9306065891
 31
0.0
  0
ARC
  5
218
330
1F
100
AcDbEntity
  8
0
  6
Continuous
 62
     7
370
    25
100
AcDbCircle
 10
9.6439175263
 20
57.5960940935
 30
0.0
 40
0.7000000000000028
100
AcDbArc
 50
270.0
 51
315.0
  0
LINE
  5
219
330
1F
100
AcDbEntity
  8
0
  6
Continuous
 62
     7
370
    25
100
AcDbLine
 10
4.668810038
 20
56.8960940935
 30
0.0
 11
9.6439175263
 21
56.8960940935
 31
0.0
  0
ARC
  5
21A
330
1F
100
AcDbEntity
  8
0
  6
Continuous
 62
     7
370
    25
100
AcDbCircle
 10
4.668810038
 20
57.5960940935
 30
0.0
 40
0.6999999999999997
100
AcDbArc
 50
180.0
 51
270.0
  0
LINE
  5
21B
330
1F
100
AcDbEntity
  8
0
  6
Continuous
 62
     7
370
    25
100
AcDbLine
 10
3.968810038
 20
58.9974935497
 30
0.0
 11
3.968810038
 21
57.5960940935
 31
0.0
  0
ARC
  5
21C
330
1F
100
AcDbEntity
  8
0
  6
Continuous
 62
     7
370
    25
100
AcDbCircle
 10
4.668810038
 20
58.9974935497
 30
0.0
 40
0.70000000000001
100
AcDbArc
 50
90.0
 51
180.0
  0
LINE
  5
21D
330
1F
100
AcDbEntity
  8
0
  6
Continuous
 62
     7
370
    25
100
AcDbLine
 10
6.0239795107
 20
59.6974935497
 30
0.0
 11
4.668810038
 21
59.6974935497
 31
0.0
  0
LINE
  5
21E
330
1F
100
AcDbEntity
  8
0
  6
Continuous
 62
     7
370
    25
100
AcDbLine
 10
6.0239795107
 20
62.3911640431
 30
0.0
 11
6.0239795107
 21
59.6974935497
 31
0.0
  0
LINE
  5
21F
330
1F
100
AcDbEntity
  8
0
  6
Continuous
 62
     7
370
    25
100
AcDbLine
 10
1.4541668072
 20
62.3911640431
 30
0.0
 11
6.0239795107
 21
62.3911640431
 31
0.0
  0
LINE
  5
220
330
1F
100
AcDbEntity
  8
0
  6
Continuous
 62
     7
370
    25
100
AcDbLine
 10
1.4541668072
 20
61.3235607054
 30
0.0
 11
1.4541668072
 21
62.3911640431
 31
0.0
  0
LINE
  5
221
330
1F
100
AcDbEntity
  8
0
  6
Continuous
 62
     7
370
    25
100
AcDbLine
 10
0.0
 20
61.3235607054
 30
0.0
 11
1.4541668072
 21
61.3235607054
 31
0.0
  0
LINE
  5
222
330
1F
100
AcDbEntity
  8
0
  6
Continuous
 62
     7
370
    25
100
AcDbLine
 10
0.0
 20
53.0366438247
 30
0.0
 11
0.0
 21
61.3235607054
 31
0.0
  0
LINE
  5
223
330
1F
100
AcDbEntity
  8
0
  6
Continuous
 62
     7
370
    25
100
AcDbLine
 10
121.6407068968
 20
48.0458348992
 30
0.0
 11
121.6407068968
 21
41.9541651008
 31
0.0
  0
LINE
  5
224
330
1F
100
AcDbEntity
  8
0
  6
Continuous
 62
     7
370
    25
100
AcDbLine
 10
121.6407068968
 20
48.0458348992
 30
0.0
 11
120.7623665475
 21
48.0458348992
 31
0.0
  0
LINE
  5
225
330
1F
100
AcDbEntity
  8
0
  6
Continuous
 62
     7
370
    25
100
AcDbLine
 10
120.7623665475
 20
48.0458348992
 30
0.0
 11
120.7623665475
 21
66.4042800038
 31
0.0
  0
LINE
  5
226
330
1F
100
AcDbEntity
  8
0
  6
Continuous
 62
     7
370
    25
100
AcDbLine
 10
120.7623665475
 20
66.4042800038
 30
0.0
 11
119.6727055381
 21
67.4939410132
 31
0.0
  0
LINE
  5
227
330
1F
100
AcDbEntity
  8
0
  6
Continuous
 62
     7
370
    25
100
AcDbLine
 10
119.6727055381
 20
67.4939410132
 30
0.0
 11
120.7623665475
 21
68.5836020226
 31
0.0
  0
LINE
  5
228
330
1F
100
AcDbEntity
  8
0
  6
Continuous
 62
     7
370
    25
100
AcDbLine
 10
120.7623665475
 20
68.5836020226
 30
0.0
 11
120.7623665475
 21
73.6346744195
 31
0.0
  0
LINE
  5
229
330
1F
100
AcDbEntity
  8
0
  6
Continuous
 62
     7
370
    25
100
AcDbLine
 10
120.7623665475
 20
73.6346744195
 30
0.0
 11
125.7760365554
 21
78.6483444274
 31
0.0
  0
LINE
  5
22A
330
1F
100
AcDbEntity
  8
0
  6
Continuous
 62
     7
370
    25
100
AcDbLine
 10
125.7760365554
 20
78.6483444274
 30
0.0
 11
125.7760365554
 21
86.031189962
 31
0.0
  0
LINE
  5
22B
330
1F
100
AcDbEntity
  8
0
  6
Continuous
 62
     7
370
    25
100
AcDbLine
 10
125.7760365554
 20
86.031189962
 30
0.0
 11
144.2239634446
 21
86.031189962
 31
0.0
  0
LINE
  5
22C
330
1F
100
AcDbEntity
  8
0
  6
Continuous
 62
     7
370
    25
100
AcDbLine
 10
144.2239634446
 20
86.031189962
 30
0.0
 11
144.2239634446
 21
78.6483444274
 31
0.0
  0
LINE
  5
22D
330
1F
100
AcDbEntity
  8
0
  6
Continuous
 62
     7
370
    25
100
AcDbLine
 10
144.2239634446
 20
78.6483444274
 30
0.0
 11
149.2376334525
 21
73.6346744195
 31
0.0
  0
LINE
  5
22E
330
1F
100
AcDbEntity
  8
0
  6
Continuous
 62
     7
370
    25
100
AcDbLine
 10
149.2376334525
 20
73.6346744195
 30
0.0
 11
149.2376334525
 21
68.5836020226
 31
0.0
  0
LINE
  5
22F
330
1F
100
AcDbEntity
  8
0
  6
Continuous
 62
     7
370
    25
100
AcDbLine
 10
149.2376334525
 20
68.5836020226
 30
0.0
 11
150.3272944619
 21
67.4939410132
 31
0.0
  0
LINE
  5
230
330
1F
100
AcDbEntity
  8
0
  6
Continuous
 62
     7
370
    25
100
AcDbLine
 10
150.3272944619
 20
67.4939410132
 30
0.0
 11
149.2376334525
 21
66.4042800038
 31
0.0
  0
LINE
  5
231
330
1F
100
AcDbEntity
  8
0
  6
Continuous
 62
     7
370
    25
100
AcDbLine
 10
149.2376334525
 20
66.4042800038
 30
0.0
 11
149.2376334525
 21
60.4366380301
 31
0.0
  0
ARC
  5
232
330
1F
100
AcDbEntity
  8
0
  6
Continuous
 62
     7
370
    25
100
AcDbCircle
 10
135.0
 20
45.0
 30
0.0
 40
21.00000000000003
100
AcDbArc
 50
42.6861924652
 51
47.3138075348
  0
LINE
  5
233
330
1F
100
AcDbEntity
  8
0
  6
Continuous
 62
     7
370
    25
100
AcDbLine
 10
150.4366380301
 20
59.2376334525
 30
0.0
 11
156.4042800038
 21
59.2376334525
 31
0.0
  0
LINE
  5
234
330
1F
100
AcDbEntity
  8
0
  6
Continuous
 62
     7
370
    25
100
AcDbLine
 10
156.4042800038
 20
59.2376334525
 30
0.0
 11
157.4939410132
 21
60.3272944619
 31
0.0
  0
LINE
  5
235
330
1F
100
AcDbEntity
  8
0
  6
Continuous
 62
     7
370
    25
100
AcDbLine
 10
157.4939410132
 20
60.3272944619
 30
0.0
 11
158.5836020226
 21
59.2376334525
 31
0.0
  0
LINE
  5
236
330
1F
100
AcDbEntity
  8
0
  6
Continuous
 62
     7
370
    25
100
AcDbLine
 10
158.5836020226
 20
59.2376334525
 30
0.0
 11
163.6346744195
 21
59.2376334525
 31
0.0
  0
LINE
  5
237
330
1F
100
AcDbEntity
  8
0
  6
Continuous
 62
     7
370
    25
100
AcDbLine
 10
163.6346744195
 20
59.2376334525
 30
0.0
 11
168.6483444274
 21
54.2239634446
 31
0.0
  0
LINE
  5
238
330
1F
100
AcDbEntity
  8
0
  6
Continuous
 62
     7
370
    25
100
AcDbLine
 10
168.6483444274
 20
54.2239634446
 30
0.0
 11
176.031189962
 21
54.2239634446
 31
0.0
  0
LINE
  5
239
330
1F
100
AcDbEntity
  8
0
  6
Continuous
 62
     7
370
    25
100
AcDbLine
 10
176.031189962
 20
35.7760365554
 30
0.0
 11
176.031189962
 21
54.2239634446
 31
0.0
  0
LINE
  5
23A
330
1F
100
AcDbEntity
  8
0
  6
Continuous
 62
     7
370
    25
100
AcDbLine
 10
168.6483444274
 20
35.7760365554
 30
0.0
 11
176.031189962
 21
35.7760365554
 31
0.0
  0
LINE
  5
23B
330
1F
100
AcDbEntity
  8
0
  6
Continuous
 62
     7
370
    25
100
AcDbLine
 10
163.6346744195
 20
30.7623665475
 30
0.0
 11
168.6483444274
 21
35.7760365554
 31
0.0
  0
LINE
  5
23C
330
1F
100
AcDbEntity
  8
0
  6
Continuous
 62
     7
370
    25
100
AcDbLine
 10
158.5836020226
 20
30.7623665475
 30
0.0
 11
163.6346744195
 21
30.7623665475
 31
0.0
  0
LINE
  5
23D
330
1F
100
AcDbEntity
  8
0
  6
Continuous
 62
     7
370
    25
100
AcDbLine
 10
157.4939410132
 20
29.6727055381
 30
0.0
 11
158.5836020226
 21
30.7623665475
 31
0.0
  0
LINE
  5
23E
330
1F
100
AcDbEntity
  8
0
  6
Continuous
 62
     7
370
    25
100
AcDbLine
 10
156.4042800038
 20
30.7623665475
 30
0.0
 11
157.4939410132
 21
29.6727055381
 31
0.0
  0
LINE
  5
23F
330
1F
100
AcDbEntity
  8
0
  6
Continuous
 62
     7
370
    25
100
AcDbLine
 10
150.4366380301
 20
30.7623665475
 30
0.0
 11
156.4042800038
 21
30.7623665475
 31
0.0
  0
ARC
  5
240
330
1F
100
AcDbEntity
  8
0
  6
Continuous
 62
     7
370
    25
100
AcDbCircle
 10
135.0
 20
45.0
 30
0.0
 40
21.00000000000002
100
AcDbArc
 50
312.6861924652
 51
317.3138075348
  0
LINE
  5
241
330
1F
100
AcDbEntity
  8
0
  6
Continuous
 62
     7
370
    25
100
AcDbLine
 10
149.2376334525
 20
23.5957199962
 30
0.0
 11
149.2376334525
 21
29.5633619699
 31
0.0
  0
LINE
  5
242
330
1F
100
AcDbEntity
  8
0
  6
Continuous
 62
     7
370
    25
100
AcDbLine
 10
150.3272944619
 20
22.5060589868
 30
0.0
 11
149.2376334525
 21
23.5957199962
 31
0.0
  0
LINE
  5
243
330
1F
100
AcDbEntity
  8
0
  6
Continuous
 62
     7
370
    25
100
AcDbLine
 10
149.2376334525
 20
21.4163979774
 30
0.0
 11
150.3272944619
 21
22.5060589868
 31
0.0
  0
LINE
  5
244
330
1F
100
AcDbEntity
  8
0
  6
Continuous
 62
     7
370
    25
100
AcDbLine
 10
149.2376334525
 20
16.3653255805
 30
0.0
 11
149.2376334525
 21
21.4163979774
 31
0.0
  0
LINE
  5
245
330
1F
100
AcDbEntity
  8
0
  6
Continuous
 62
     7
370
    25
100
AcDbLine
 10
144.2239634446
 20
11.3516555726
 30
0.0
 11
149.2376334525
 21
16.3653255805
 31
0.0
  0
LINE
  5
246
330
1F
100
AcDbEntity
  8
0
  6
Continuous
 62
     7
370
    25
100
AcDbLine
 10
144.2239634446
 20
3.968810038
 30
0.0
 11
144.2239634446
 21
11.3516555726
 31
0.0
  0
LINE
  5
247
330
1F
100
AcDbEntity
  8
0
  6
Continuous
 62
     7
370
    25
100
AcDbLine
 10
125.7760365554
 20
3.968810038
 30
0.0
 11
144.2239634446
 21
3.968810038
 31
0.0
  0
LINE
  5
248
330
1F
100
AcDbEntity
  8
0
  6
Continuous
 62
     7
370
    25
100
AcDbLine
 10
125.7760365554
 20
11.3516555726
 30
0.0
 11
125.7760365554
 21
3.968810038
 31
0.0
  0
LINE
  5
249
330
1F
100
AcDbEntity
  8
0
  6
Continuous
 62
     7
370
    25
100
AcDbLine
 10
120.7623665475
 20
16.3653255805
 30
0.0
 11
125.7760365554
 21
11.3516555726
 31
0.0
  0
LINE
  5
24A
330
1F
100
AcDbEntity
  8
0
  6
Continuous
 62
     7
370
    25
100
AcDbLine
 10
120.7623665475
 20
21.4163979774
 30
0.0
 11
120.7623665475
 21
16.3653255805
 31
0.0
  0
LINE
  5
24B
330
1F
100
AcDbEntity
  8
0
  6
Continuous
 62
     7
370
    25
100
AcDbLine
 10
119.6727055381
 20
22.5060589868
 30
0.0
 11
120.7623665475
 21
21.4163979774
 31
0.0
  0
LINE
  5
24C
330
1F
100
AcDbEntity
  8
0
  6
Continuous
 62
     7
370
    25
100
AcDbLine
 10
120.7623665475
 20
23.5957199962
 30
0.0
 11
119.6727055381
 21
22.5060589868
 31
0.0
  0
LINE
  5
24D
330
1F
100
AcDbEntity
  8
0
  6
Continuous
 62
     7
370
    25
100
AcDbLine
 10
120.7623665475
 20
41.9541651008
 30
0.0
 11
120.7623665475
 21
23.5957199962
 31
0.0
  0
LINE
  5
24E
330
1F
100
AcDbEntity
  8
0
  6
Continuous
 62
     7
370
    25
100
AcDbLine
 10
121.6407068968
 20
41.9541651008
 30
0.0
 11
120.7623665475
 21
41.9541651008
 31
0.0
  0
ARC
  5
24F
330
1F
100
AcDbEntity
  8
0
  6
Continuous
 62
     7
370
    25
100
AcDbCircle
 10
67.5
 20
22.5
 30
0.0
 40
4.500000000000013
100
AcDbArc
 50
243.0386289048
 51
296.9613710952
  0
LINE
  5
250
330
1F
100
AcDbEntity
  8
0
  6
Continuous
 62
     7
370
    25
100
AcDbLine
 10
64.7112757043
 20
17.7406234456
 30
0.0
 11
65.4597464463
 21
18.4890941875
 31
0.0
  0
ARC
  5
251
330
1F
100
AcDbEntity
  8
0
  6
Continuous
 62
     7
370
    25
100
AcDbCircle
 10
64.9234077387
 20
17.5284914112
 30
0.0
 40
0.3000000000000095
100
AcDbArc
 50
135.0
 51
225.0
  0
LINE
  5
252
330
1F
100
AcDbEntity
  8
0
  6
Continuous
 62
     7
370
    25
100
AcDbLine
 10
65.0801943924
 20
16.9474406887
 30
0.0
 11
64.7112757043
 21
17.3163593768
 31
0.0
  0
ARC
  5
253
330
1F
100
AcDbEntity
  8
0
  6
Continuous
 62
     7
370
    25
100
AcDbCircle
 10
64.8680623581
 20
16.7353086544
 30
0.0
 40
0.3000000000000185
100
AcDbArc
 50
270.0
 51
45.0
  0
LINE
  5
254
330
1F
100
AcDbEntity
  8
0
  6
Continuous
 62
     7
370
    25
100
AcDbLine
 10
62.512974733
 20
16.4353086544
 30
0.0
 11
64.8680623581
 21
16.4353086544
 31
0.0
  0
LINE
  5
255
330
1F
100
AcDbEntity
  8
0
  6
Continuous
 62
     7
370
    25
100
AcDbLine
 10
61.4353086544
 20
17.512974733
 30
0.0
 11
62.512974733
 21
16.4353086544
 31
0.0
  0
LINE
  5
256
330
1F
100
AcDbEntity
  8
0
  6
Continuous
 62
     7
370
    25
100
AcDbLine
 10
61.4353086544
 20
19.8680623581
 30
0.0
 11
61.4353086544
 21
17.512974733
 31
0.0
  0
ARC
  5
257
330
1F
100
AcDbEntity
  8
0
  6
Continuous
 62
     7
370
    25
100
AcDbCircle
 10
61.7353086544
 20
19.8680623581
 30
0.0
 40
0.2999999999999972
100
AcDbArc
 50
45.0
 51
180.0
  0
LINE
  5
258
330
1F
100
AcDbEntity
  8
0
  6
Continuous
 62
     7
370
    25
100
AcDbLine
 10
62.3163593768
 20
19.7112757043
 30
0.0
 11
61.9474406887
 21
20.0801943924
 31
0.0
  0
ARC
  5
259
330
1F
100
AcDbEntity
  8
0
  6
Continuous
 62
     7
370
    25
100
AcDbCircle
 10
62.5284914112
 20
19.9234077387
 30
0.0
 40
0.3000000000000195
100
AcDbArc
 50
225.0
 51
315.0
  0
LINE
  5
25A
330
1F
100
AcDbEntity
  8
0
  6
Continuous
 62
     7
370
    25
100
AcDbLine
 10
63.4890941875
 20
20.4597464463
 30
0.0
 11
62.7406234456
 21
19.7112757043
 31
0.0
  0
ARC
  5
25B
330
1F
100
AcDbEntity
  8
0
  6
Continuous
 62
     7
370
    25
100
AcDbCircle
 10
67.5
 20
22.5
 30
0.0
 40
4.499999999999983
100
AcDbArc
 50
153.0386289048
 51
206.9613710952
  0
LINE
  5
25C
330
1F
100
AcDbEntity
  8
0
  6
Continuous
 62
     7
370
    25
100
AcDbLine
 10
62.7406234456
 20
25.2887242957
 30
0.0
 11
63.4890941875
 21
24.5402535537
 31
0.0
  0
ARC
  5
25D
330
1F
100
AcDbEntity
  8
0
  6
Continuous
 62
     7
370
    25
100
AcDbCircle
 10
62.5284914112
 20
25.0765922613
 30
0.0
 40
0.2999999999999994
100
AcDbArc
 50
45.0
 51
135.0
  0
LINE
  5
25E
330
1F
100
AcDbEntity
  8
0
  6
Continuous
 62
     7
370
    25
100
AcDbLine
 10
61.9474406887
 20
24.9198056076
 30
0.0
 11
62.3163593768
 21
25.2887242957
 31
0.0
  0
ARC
  5
25F
330
1F
100
AcDbEntity
  8
0
  6
Continuous
 62
     7
370
    25
100
AcDbCircle
 10
61.7353086544
 20
25.1319376419
 30
0.0
 40
0.2999999999999972
100
AcDbArc
 50
180.0
 51
315.0
  0
LINE
  5
260
330
1F
100
AcDbEntity
  8
0
  6
Continuous
 62
     7
370
    25
100
AcDbLine
 10
61.4353086544
 20
27.487025267
 30
0.0
 11
61.4353086544
 21
25.1319376419
 31
0.0
  0
LINE
  5
261
330
1F
100
AcDbEntity
  8
0
  6
Continuous
 62
     7
370
    25
100
AcDbLine
 10
62.512974733
 20
28.5646913456
 30
0.0
 11
61.4353086544
 21
27.487025267
 31
0.0
  0
LINE
  5
262
330
1F
100
AcDbEntity
  8
0
  6
Continuous
 62
     7
370
    25
100
AcDbLine
 10
64.8680623581
 20
28.5646913456
 30
0.0
 11
62.512974733
 21
28.5646913456
 31
0.0
  0
ARC
  5
263
330
1F
100
AcDbEntity
  8
0
  6
Continuous
 62
     7
370
    25
100
AcDbCircle
 10
64.8680623581
 20
28.2646913456
 30
0.0
 40
0.3000000000000095
100
AcDbArc
 50
315.0
 51
90.0
  0
LINE
  5
264
330
1F
100
AcDbEntity
  8
0
  6
Continuous
 62
     7
370
    25
100
AcDbLine
 10
64.7112757043
 20
27.6836406232
 30
0.0
 11
65.0801943924
 21
28.0525593113
 31
0.0
  0
ARC
  5
265
330
1F
100
AcDbEntity
  8
0
  6
Continuous
 62
     7
370
    25
100
AcDbCircle
 10
64.9234077387
 20
27.4715085888
 30
0.0
 40
0.2999999999999994
100
AcDbArc
 50
135.0
 51
225.0
  0
LINE
  5
266
330
1F
100
AcDbEntity
  8
0
  6
Continuous
 62
     7
370
    25
100
AcDbLine
 10
65.4597464463
 20
26.5109058125
 30
0.0
 11
64.7112757043
 21
27.2593765544
 31
0.0
  0
ARC
  5
267
330
1F
100
AcDbEntity
  8
0
  6
Continuous
 62
     7
370
    25
100
AcDbCircle
 10
67.5
 20
22.5
 30
0.0
 40
4.50000000000001
100
AcDbArc
 50
63.0386289048
 51
116.9613710952
  0
LINE
  5
268
330
1F
100
AcDbEntity
  8
0
  6
Continuous
 62
     7
370
    25
100
AcDbLine
 10
70.2887242957
 20
27.2593765544
 30
0.0
 11
69.5402535537
 21
26.5109058125
 31
0.0
  0
ARC
  5
269
330
1F
100
AcDbEntity
  8
0
  6
Continuous
 62
     7
370
    25
100
AcDbCircle
 10
70.0765922613
 20
27.4715085888
 30
0.0
 40
0.2999999999999918
100
AcDbArc
 50
315.0
 51
45.0
  0
LINE
  5
26A
330
1F
100
AcDbEntity
  8
0
  6
Continuous
 62
     7
370
    25
100
AcDbLine
 10
69.9198056076
 20
28.0525593113
 30
0.0
 11
70.2887242957
 21
27.6836406232
 31
0.0
  0
ARC
  5
26B
330
1F
100
AcDbEntity
  8
0
  6
Continuous
 62
     7
370
    25
100
AcDbCircle
 10
70.1319376419
 20
28.2646913456
 30
0.0
 40
0.3000000000000043
100
AcDbArc
 50
90.0
 51
225.0
  0
LINE
  5
26C
330
1F
100
AcDbEntity
  8
0
  6
Continuous
 62
     7
370
    25
100
AcDbLine
 10
72.487025267
 20
28.5646913456
 30
0.0
 11
70.1319376419
 21
28.5646913456
 31
0.0
  0
LINE
  5
26D
330
1F
100
AcDbEntity
  8
0
  6
Continuous
 62
     7
370
    25
100
AcDbLine
 10
73.5646913456
 20
27.487025267
 30
0.0
 11
72.487025267
 21
28.5646913456
 31
0.0
  0
LINE
  5
26E
330
1F
100
AcDbEntity
  8
0
  6
Continuous
 62
     7
370
    25
100
AcDbLine
 10
73.5646913456
 20
25.1319376419
 30
0.0
 11
73.5646913456
 21
27.487025267
 31
0.0
  0
ARC
  5
26F
330
1F
100
AcDbEntity
  8
0
  6
Continuous
 62
     7
370
    25
100
AcDbCircle
 10
73.2646913456
 20
25.1319376419
 30
0.0
 40
0.3000000000000044
100
AcDbArc
 50
225.0
 51
0.0
  0
LINE
  5
270
330
1F
100
AcDbEntity
  8
0
  6
Continuous
 62
     7
370
    25
100
AcDbLine
 10
72.6836406232
 20
25.2887242957
 30
0.0
 11
73.0525593113
 21
24.9198056076
 31
0.0
  0
ARC
  5
271
330
1F
100
AcDbEntity
  8
0
  6
Continuous
 62
     7
370
    25
100
AcDbCircle
 10
72.4715085888
 20
25.0765922613
 30
0.0
 40
0.300000000000017
100
AcDbArc
 50
45.0
 51
135.0
  0
LINE
  5
272
330
1F
100
AcDbEntity
  8
0
  6
Continuous
 62
     7
370
    25
100
AcDbLine
 10
71.5109058125
 20
24.5402535537
 30
0.0
 11
72.2593765544
 21
25.2887242957
 31
0.0
  0
ARC
  5
273
330
1F
100
AcDbEntity
  8
0
  6
Continuous
 62
     7
370
    25
100
AcDbCircle
 10
67.5
 20
22.5
 30
0.0
 40
4.500000000000032
100
AcDbArc
 50
333.0386289048
 51
26.9613710952
  0
LINE
  5
274
330
1F
100
AcDbEntity
  8
0
  6
Continuous
 62
     7
370
    25
100
AcDbLine
 10
72.2593765544
 20
19.7112757043
 30
0.0
 11
71.5109058125
 21
20.4597464463
 31
0.0
  0
ARC
  5
275
330
1F
100
AcDbEntity
  8
0
  6
Continuous
 62
     7
370
    25
100
AcDbCircle
 10
72.4715085888
 20
19.9234077387
 30
0.0
 40
0.3000000000000069
100
AcDbArc
 50
225.0
 51
315.0
  0
LINE
  5
276
330
1F
100
AcDbEntity
  8
0
  6
Continuous
 62
     7
370
    25
100
AcDbLine
 10
73.0525593113
 20
20.0801943924
 30
0.0
 11
72.6836406232
 21
19.7112757043
 31
0.0
  0
ARC
  5
277
330
1F
100
AcDbEntity
  8
0
  6
Continuous
 62
     7
370
    25
100
AcDbCircle
 10
73.2646913456
 20
19.8680623581
 30
0.0
 40
0.3000000000000044
100
AcDbArc
 50
0.0
 51
135.0
  0
LINE
  5
278
330
1F
100
AcDbEntity
  8
0
  6
Continuous
 62
     7
370
    25
100
AcDbLine
 10
73.5646913456
 20
17.512974733
 30
0.0
 11
73.5646913456
 21
19.8680623581
 31
0.0
  0
LINE
  5
279
330
1F
100
AcDbEntity
  8
0
  6
Continuous
 62
     7
370
    25
100
AcDbLine
 10
72.487025267
 20
16.4353086544
 30
0.0
 11
73.5646913456
 21
17.512974733
 31
0.0
  0
LINE
  5
27A
330
1F
100
AcDbEntity
  8
0
  6
Continuous
 62
     7
370
    25
100
AcDbLine
 10
70.1319376419
 20
16.4353086544
 30
0.0
 11
72.487025267
 21
16.4353086544
 31
0.0
  0
ARC
  5
27B
330
1F
100
AcDbEntity
  8
0
  6
Continuous
 62
     7
370
    25
100
AcDbCircle
 10
70.1319376419
 20
16.7353086544
 30
0.0
 40
0.3000000000000043
100
AcDbArc
 50
135.0
 51
270.0
  0
LINE
  5
27C
330
1F
100
AcDbEntity
  8
0
  6
Continuous
 62
     7
370
    25
100
AcDbLine
 10
70.2887242957
 20
17.3163593768
 30
0.0
 11
69.9198056076
 21
16.9474406887
 31
0.0
  0
ARC
  5
27D
330
1F
100
AcDbEntity
  8
0
  6
Continuous
 62
     7
370
    25
100
AcDbCircle
 10
70.0765922613
 20
17.5284914112
 30
0.0
 40
0.3000000000000195
100
AcDbArc
 50
315.0
 51
45.0
  0
LINE
  5
27E
330
1F
100
AcDbEntity
  8
0
  6
Continuous
 62
     7
370
    25
100
AcDbLine
 10
69.5402535537
 20
18.4890941875
 30
0.0
 11
70.2887242957
 21
17.7406234456
 31
0.0
  0
ARC
  5
27F
330
1F
100
AcDbEntity
  8
0
  6
Continuous
 62
     7
370
    25
100
AcDbCircle
 10
6.0
 20
6.0
 30
0.0
 40
3.550000000000011
100
AcDbArc
 50
61.361103524
 51
118.638896476
  0
LINE
  5
280
330
1F
100
AcDbEntity
  8
0
  6
Continuous
 62
     7
370
    25
100
AcDbLine
 10
8.2484150056
 20
9.662628568
 30
0.0
 11
7.7014716377
 21
9.1156852001
 31
0.0
  0
ARC
  5
281
330
1F
100
AcDbEntity
  8
0
  6
Continuous
 62
     7
370
    25
100
AcDbCircle
 10
8.9555217868
 20
8.9555217868
 30
0.0
 40
0.999999999999993
100
AcDbArc
 50
315.0
 51
135.0
  0
LINE
  5
282
330
1F
100
AcDbEntity
  8
0
  6
Continuous
 62
     7
370
    25
100
AcDbLine
 10
9.1156852001
 20
7.7014716377
 30
0.0
 11
9.662628568
 21
8.2484150056
 31
0.0
  0
ARC
  5
283
330
1F
100
AcDbEntity
  8
0
  6
Continuous
 62
     7
370
    25
100
AcDbCircle
 10
6.0
 20
6.0
 30
0.0
 40
3.550000000000008
100
AcDbArc
 50
331.361103524
 51
28.638896476
  0
LINE
  5
284
330
1F
100
AcDbEntity
  8
0
  6
Continuous
 62
     7
370
    25
100
AcDbLine
 10
9.662628568
 20
3.7515849944
 30
0.0
 11
9.1156852001
 21
4.2985283623
 31
0.0
  0
ARC
  5
285
330
1F
100
AcDbEntity
  8
0
  6
Continuous
 62
     7
370
    25
100
AcDbCircle
 10
8.9555217868
 20
3.0444782132
 30
0.0
 40
0.9999999999999949
100
AcDbArc
 50
225.0
 51
45.0
  0
LINE
  5
286
330
1F
100
AcDbEntity
  8
0
  6
Continuous
 62
     7
370
    25
100
AcDbLine
 10
7.7014716377
 20
2.8843147999
 30
0.0
 11
8.2484150056
 21
2.337371432
 31
0.0
  0
ARC
  5
287
330
1F
100
AcDbEntity
  8
0
  6
Continuous
 62
     7
370
    25
100
AcDbCircle
 10
6.0
 20
6.0
 30
0.0
 40
3.550000000000009
100
AcDbArc
 50
241.361103524
 51
298.638896476
  0
LINE
  5
288
330
1F
100
AcDbEntity
  8
0
  6
Continuous
 62
     7
370
    25
100
AcDbLine
 10
3.7515849944
 20
2.337371432
 30
0.0
 11
4.2985283623
 21
2.8843147999
 31
0.0
  0
ARC
  5
289
330
1F
100
AcDbEntity
  8
0
  6
Continuous
 62
     7
370
    25
100
AcDbCircle
 10
3.0444782132
 20
3.0444782132
 30
0.0
 40
0.9999999999999939
100
AcDbArc
 50
135.0
 51
315.0
  0
LINE
  5
28A
330
1F
100
AcDbEntity
  8
0
  6
Continuous
 62
     7
370
    25
100
AcDbLine
 10
2.8843147999
 20
4.2985283623
 30
0.0
 11
2.337371432
 21
3.7515849944
 31
0.0
  0
ARC
  5
28B
330
1F
100
AcDbEntity
  8
0
  6
Continuous
 62
     7
370
    25
100
AcDbCircle
 10
6.0
 20
6.0
 30
0.0
 40
3.550000000000008
100
AcDbArc
 50
151.361103524
 51
208.638896476
  0
LINE
  5
28C
330
1F
100
AcDbEntity
  8
0
  6
Continuous
 62
     7
370
    25
100
AcDbLine
 10
2.337371432
 20
8.2484150056
 30
0.0
 11
2.8843147999
 21
7.7014716377
 31
0.0
  0
ARC
  5
28D
330
1F
100
AcDbEntity
  8
0
  6
Continuous
 62
     7
370
    25
100
AcDbCircle
 10
3.0444782132
 20
8.9555217868
 30
0.0
 40
0.9999999999999927
100
AcDbArc
 50
45.0
 51
225.0
  0
LINE
  5
28E
330
1F
100
AcDbEntity
  8
0
  6
Continuous
 62
     7
370
    25
100
AcDbLine
 10
4.2985283623
 20
9.1156852001
 30
0.0
 11
3.7515849944
 21
9.662628568
 31
0.0
  0
LINE
  5
28F
330
1F
100
AcDbEntity
  8
0
  6
Continuous
 62
     7
370
    25
100
AcDbLine
 10
28.5646913456
 20
25.1319376419
 30
0.0
 11
28.5646913456
 21
27.487025267
 31
0.0
  0
ARC
  5
290
330
1F
100
AcDbEntity
  8
0
  6
Continuous
 62
     7
370
    25
100
AcDbCircle
 10
28.2646913456
 20
25.1319376419
 30
0.0
 40
0.3000000000000019
100
AcDbArc
 50
225.0
 51
0.0
  0
LINE
  5
291
330
1F
100
AcDbEntity
  8
0
  6
Continuous
 62
     7
370
    25
100
AcDbLine
 10
27.6836406232
 20
25.2887242957
 30
0.0
 11
28.0525593113
 21
24.9198056076
 31
0.0
  0
ARC
  5
292
330
1F
100
AcDbEntity
  8
0
  6
Continuous
 62
     7
370
    25
100
AcDbCircle
 10
27.4715085888
 20
25.0765922613
 30
0.0
 40
0.2999999999999969
100
AcDbArc
 50
45.0
 51
135.0
  0
LINE
  5
293
330
1F
100
AcDbEntity
  8
0
  6
Continuous
 62
     7
370
    25
100
AcDbLine
 10
26.5109058125
 20
24.5402535537
 30
0.0
 11
27.2593765544
 21
25.2887242957
 31
0.0
  0
ARC
  5
294
330
1F
100
AcDbEntity
  8
0
  6
Continuous
 62
     7
370
    25
100
AcDbCircle
 10
22.5
 20
22.5
 30
0.0
 40
4.499999999999975
100
AcDbArc
 50
333.0386289048
 51
26.9613710952
  0
LINE
  5
295
330
1F
100
AcDbEntity
  8
0
  6
Continuous
 62
     7
370
    25
100
AcDbLine
 10
27.2593765544
 20
19.7112757043
 30
0.0
 11
26.5109058125
 21
20.4597464463
 31
0.0
  0
ARC
  5
296
330
1F
100
AcDbEntity
  8
0
  6
Continuous
 62
     7
370
    25
100
AcDbCircle
 10
27.4715085888
 20
19.9234077387
 30
0.0
 40
0.300000000000012
100
AcDbArc
 50
225.0
 51
315.0
  0
LINE
  5
297
330
1F
100
AcDbEntity
  8
0
  6
Continuous
 62
     7
370
    25
100
AcDbLine
 10
28.0525593113
 20
20.0801943924
 30
0.0
 11
27.6836406232
 21
19.7112757043
 31
0.0
  0
ARC
  5
298
330
1F
100
AcDbEntity
  8
0
  6
Continuous
 62
     7
370
    25
100
AcDbCircle
 10
28.2646913456
 20
19.8680623581
 30
0.0
 40
0.3000000000000078
100
AcDbArc
 50
360.0
 51
135.0
  0
LINE
  5
299
330
1F
100
AcDbEntity
  8
0
  6
Continuous
 62
     7
370
    25
100
AcDbLine
 10
28.5646913456
 20
17.512974733
 30
0.0
 11
28.5646913456
 21
19.8680623581
 31
0.0
  0
LINE
  5
29A
330
1F
100
AcDbEntity
  8
0
  6
Continuous
 62
     7
370
    25
100
AcDbLine
 10
27.487025267
 20
16.4353086544
 30
0.0
 11
28.5646913456
 21
17.512974733
 31
0.0
  0
LINE
  5
29B
330
1F
100
AcDbEntity
  8
0
  6
Continuous
 62
     7
370
    25
100
AcDbLine
 10
25.1319376419
 20
16.4353086544
 30
0.0
 11
27.487025267
 21
16.4353086544
 31
0.0
  0
ARC
  5
29C
330
1F
100
AcDbEntity
  8
0
  6
Continuous
 62
     7
370
    25
100
AcDbCircle
 10
25.1319376419
 20
16.7353086544
 30
0.0
 40
0.3000000000000007
100
AcDbArc
 50
135.0
 51
270.0
  0
LINE
  5
29D
330
1F
100
AcDbEntity
  8
0
  6
Continuous
 62
     7
370
    25
100
AcDbLine
 10
25.2887242957
 20
17.3163593768
 30
0.0
 11
24.9198056076
 21
16.9474406887
 31
0.0
  0
ARC
  5
29E
330
1F
100
AcDbEntity
  8
0
  6
Continuous
 62
     7
370
    25
100
AcDbCircle
 10
25.0765922613
 20
17.5284914112
 30
0.0
 40
0.3000000000000019
100
AcDbArc
 50
315.0
 51
45.0
  0
LINE
  5
29F
330
1F
100
AcDbEntity
  8
0
  6
Continuous
 62
     7
370
    25
100
AcDbLine
 10
24.5402535537
 20
18.4890941875
 30
0.0
 11
25.2887242957
 21
17.7406234456
 31
0.0
  0
ARC
  5
2A0
330
1F
100
AcDbEntity
  8
0
  6
Continuous
 62
     7
370
    25
100
AcDbCircle
 10
22.5
 20
22.5
 30
0.0
 40
4.500000000000007
100
AcDbArc
 50
243.0386289048
 51
296.9613710952
  0
LINE
  5
2A1
330
1F
100
AcDbEntity
  8
0
  6
Continuous
 62
     7
370
    25
100
AcDbLine
 10
19.7112757043
 20
17.7406234456
 30
0.0
 11
20.4597464463
 21
18.4890941875
 31
0.0
  0
ARC
  5
2A2
330
1F
100
AcDbEntity
  8
0
  6
Continuous
 62
     7
370
    25
100
AcDbCircle
 10
19.9234077387
 20
17.5284914112
 30
0.0
 40
0.3000000000000095
100
AcDbArc
 50
135.0
 51
225.0
  0
LINE
  5
2A3
330
1F
100
AcDbEntity
  8
0
  6
Continuous
 62
     7
370
    25
100
AcDbLine
 10
20.0801943924
 20
16.9474406887
 30
0.0
 11
19.7112757043
 21
17.3163593768
 31
0.0
  0
ARC
  5
2A4
330
1F
100
AcDbEntity
  8
0
  6
Continuous
 62
     7
370
    25
100
AcDbCircle
 10
19.8680623581
 20
16.7353086544
 30
0.0
 40
0.3000000000000044
100
AcDbArc
 50
270.0
 51
45.0
  0
LINE
  5
2A5
330
1F
100
AcDbEntity
  8
0
  6
Continuous
 62
     7
370
    25
100
AcDbLine
 10
17.512974733
 20
16.4353086544
 30
0.0
 11
19.8680623581
 21
16.4353086544
 31
0.0
  0
LINE
  5
2A6
330
1F
100
AcDbEntity
  8
0
  6
Continuous
 62
     7
370
    25
100
AcDbLine
 10
16.4353086544
 20
17.512974733
 30
0.0
 11
17.512974733
 21
16.4353086544
 31
0.0
  0
LINE
  5
2A7
330
1F
100
AcDbEntity
  8
0
  6
Continuous
 62
     7
370
    25
100
AcDbLine
 10
16.4353086544
 20
19.8680623581
 30
0.0
 11
16.4353086544
 21
17.512974733
 31
0.0
  0
ARC
  5
2A8
330
1F
100
AcDbEntity
  8
0
  6
Continuous
 62
     7
370
    25
100
AcDbCircle
 10
16.7353086544
 20
19.8680623581
 30
0.0
 40
0.3000000000000043
100
AcDbArc
 50
45.0
 51
180.0
  0
LINE
  5
2A9
330
1F
100
AcDbEntity
  8
0
  6
Continuous
 62
     7
370
    25
100
AcDbLine
 10
17.3163593768
 20
19.7112757043
 30
0.0
 11
16.9474406887
 21
20.0801943924
 31
0.0
  0
ARC
  5
2AA
330
1F
100
AcDbEntity
  8
0
  6
Continuous
 62
     7
370
    25
100
AcDbCircle
 10
17.5284914112
 20
19.9234077387
 30
0.0
 40
0.3000000000000044
100
AcDbArc
 50
225.0
 51
315.0
  0
LINE
  5
2AB
330
1F
100
AcDbEntity
  8
0
  6
Continuous
 62
     7
370
    25
100
AcDbLine
 10
18.4890941875
 20
20.4597464463
 30
0.0
 11
17.7406234456
 21
19.7112757043
 31
0.0
  0
ARC
  5
2AC
330
1F
100
AcDbEntity
  8
0
  6
Continuous
 62
     7
370
    25
100
AcDbCircle
 10
22.5
 20
22.5
 30
0.0
 40
4.500000000000022
100
AcDbArc
 50
153.0386289048
 51
206.9613710952
  0
LINE
  5
2AD
330
1F
100
AcDbEntity
  8
0
  6
Continuous
 62
     7
370
    25
100
AcDbLine
 10
17.7406234456
 20
25.2887242957
 30
0.0
 11
18.4890941875
 21
24.5402535537
 31
0.0
  0
ARC
  5
2AE
330
1F
100
AcDbEntity
  8
0
  6
Continuous
 62
     7
370
    25
100
AcDbCircle
 10
17.5284914112
 20
25.0765922613
 30
0.0
 40
0.3000000000000095
100
AcDbArc
 50
45.0
 51
135.0
  0
LINE
  5
2AF
330
1F
100
AcDbEntity
  8
0
  6
Continuous
 62
     7
370
    25
100
AcDbLine
 10
16.9474406887
 20
24.9198056076
 30
0.0
 11
17.3163593768
 21
25.2887242957
 31
0.0
  0
ARC
  5
2B0
330
1F
100
AcDbEntity
  8
0
  6
Continuous
 62
     7
370
    25
100
AcDbCircle
 10
16.7353086544
 20
25.1319376419
 30
0.0
 40
0.3000000000000043
100
AcDbArc
 50
180.0
 51
315.0
  0
LINE
  5
2B1
330
1F
100
AcDbEntity
  8
0
  6
Continuous
 62
     7
370
    25
100
AcDbLine
 10
16.4353086544
 20
27.487025267
 30
0.0
 11
16.4353086544
 21
25.1319376419
 31
0.0
  0
LINE
  5
2B2
330
1F
100
AcDbEntity
  8
0
  6
Continuous
 62
     7
370
    25
100
AcDbLine
 10
17.512974733
 20
28.5646913456
 30
0.0
 11
16.4353086544
 21
27.487025267
 31
0.0
  0
LINE
  5
2B3
330
1F
100
AcDbEntity
  8
0
  6
Continuous
 62
     7
370
    25
100
AcDbLine
 10
19.8680623581
 20
28.5646913456
 30
0.0
 11
17.512974733
 21
28.5646913456
 31
0.0
  0
ARC
  5
2B4
330
1F
100
AcDbEntity
  8
0
  6
Continuous
 62
     7
370
    25
100
AcDbCircle
 10
19.8680623581
 20
28.2646913456
 30
0.0
 40
0.3000000000000007
100
AcDbArc
 50
315.0
 51
90.0
  0
LINE
  5
2B5
330
1F
100
AcDbEntity
  8
0
  6
Continuous
 62
     7
370
    25
100
AcDbLine
 10
19.7112757043
 20
27.6836406232
 30
0.0
 11
20.0801943924
 21
28.0525593113
 31
0.0
  0
ARC
  5
2B6
330
1F
100
AcDbEntity
  8
0
  6
Continuous
 62
     7
370
    25
100
AcDbCircle
 10
19.9234077387
 20
27.4715085888
 30
0.0
 40
0.3000000000000019
100
AcDbArc
 50
135.0
 51
225.0
  0
LINE
  5
2B7
330
1F
100
AcDbEntity
  8
0
  6
Continuous
 62
     7
370
    25
100
AcDbLine
 10
20.4597464463
 20
26.5109058125
 30
0.0
 11
19.7112757043
 21
27.2593765544
 31
0.0
  0
ARC
  5
2B8
330
1F
100
AcDbEntity
  8
0
  6
Continuous
 62
     7
370
    25
100
AcDbCircle
 10
22.5
 20
22.5
 30
0.0
 40
4.500000000000007
100
AcDbArc
 50
63.0386289048
 51
116.9613710952
  0
LINE
  5
2B9
330
1F
100
AcDbEntity
  8
0
  6
Continuous
 62
     7
370
    25
100
AcDbLine
 10
25.2887242957
 20
27.2593765544
 30
0.0
 11
24.5402535537
 21
26.5109058125
 31
0.0
  0
ARC
  5
2BA
330
1F
100
AcDbEntity
  8
0
  6
Continuous
 62
     7
370
    25
100
AcDbCircle
 10
25.0765922613
 20
27.4715085888
 30
0.0
 40
0.3000000000000019
100
AcDbArc
 50
315.0
 51
45.0
  0
LINE
  5
2BB
330
1F
100
AcDbEntity
  8
0
  6
Continuous
 62
     7
370
    25
100
AcDbLine
 10
24.9198056076
 20
28.0525593113
 30
0.0
 11
25.2887242957
 21
27.6836406232
 31
0.0
  0
ARC
  5
2BC
330
1F
100
AcDbEntity
  8
0
  6
Continuous
 62
     7
370
    25
100
AcDbCircle
 10
25.1319376419
 20
28.2646913456
 30
0.0
 40
0.3000000000000007
100
AcDbArc
 50
90.0
 51
225.0
  0
LINE
  5
2BD
330
1F
100
AcDbEntity
  8
0
  6
Continuous
 62
     7
370
    25
100
AcDbLine
 10
27.487025267
 20
28.5646913456
 30
0.0
 11
25.1319376419
 21
28.5646913456
 31
0.0
  0
LINE
  5
2BE
330
1F
100
AcDbEntity
  8
0
  6
Continuous
 62
     7
370
    25
100
AcDbLine
 10
28.5646913456
 20
27.487025267
 30
0.0
 11
27.487025267
 21
28.5646913456
 31
0.0
  0
LINE
  5
2BF
330
1F
100
AcDbEntity
  8
0
  6
Continuous
 62
     7
370
    25
100
AcDbLine
 10
62.3163593768
 20
32.7548148131
 30
0.0
 11
62.3163593768
 21
57.2451851869
 31
0.0
  0
ARC
  5
2C0
330
1F
100
AcDbEntity
  8
0
  6
Continuous
 62
     7
370
    25
100
AcDbCircle
 10
64.3088076424
 20
57.2451851869
 30
0.0
 40
1.992448265578481
100
AcDbArc
 50
90.0
 51
180.0
  0
LINE
  5
2C1
330
1F
100
AcDbEntity
  8
0
  6
Continuous
 62
     7
370
    25
100
AcDbLine
 10
66.4042800038
 20
59.2376334525
 30
0.0
 11
64.3088076424
 21
59.2376334525
 31
0.0
  0
LINE
  5
2C2
330
1F
100
AcDbEntity
  8
0
  6
Continuous
 62
     7
370
    25
100
AcDbLine
 10
67.4939410132
 20
60.3272944619
 30
0.0
 11
66.4042800038
 21
59.2376334525
 31
0.0
  0
LINE
  5
2C3
330
1F
100
AcDbEntity
  8
0
  6
Continuous
 62
     7
370
    25
100
AcDbLine
 10
68.5836020226
 20
59.2376334525
 30
0.0
 11
67.4939410132
 21
60.3272944619
 31
0.0
  0
LINE
  5
2C4
330
1F
100
AcDbEntity
  8
0
  6
Continuous
 62
     7
370
    25
100
AcDbLine
 10
74.5633619699
 20
59.2376334525
 30
0.0
 11
68.5836020226
 21
59.2376334525
 31
0.0
  0
ARC
  5
2C5
330
1F
100
AcDbEntity
  8
0
  6
Continuous
 62
     7
370
    25
100
AcDbCircle
 10
90.0
 20
45.0
 30
0.0
 40
21.0
100
AcDbArc
 50
132.6861924652
 51
137.3138075348
  0
LINE
  5
2C6
330
1F
100
AcDbEntity
  8
0
  6
Continuous
 62
     7
370
    25
100
AcDbLine
 10
75.7623665475
 20
66.336283724
 30
0.0
 11
75.7623665475
 21
60.4366380301
 31
0.0
  0
LINE
  5
2C7
330
1F
100
AcDbEntity
  8
0
  6
Continuous
 62
     7
370
    25
100
AcDbLine
 10
74.5986502715
 20
67.5
 30
0.0
 11
75.7623665475
 21
66.336283724
 31
0.0
  0
LINE
  5
2C8
330
1F
100
AcDbEntity
  8
0
  6
Continuous
 62
     7
370
    25
100
AcDbLine
 10
75.6419968234
 20
68.5433465519
 30
0.0
 11
74.5986502715
 21
67.5
 31
0.0
  0
LINE
  5
2C9
330
1F
100
AcDbEntity
  8
0
  6
Continuous
 62
     7
370
    25
100
AcDbLine
 10
75.6419968234
 20
73.5646913456
 30
0.0
 11
75.6419968234
 21
68.5433465519
 31
0.0
  0
LINE
  5
2CA
330
1F
100
AcDbEntity
  8
0
  6
Continuous
 62
     7
370
    25
100
AcDbLine
 10
80.7256499051
 20
78.6483444274
 30
0.0
 11
75.6419968234
 21
73.5646913456
 31
0.0
  0
LINE
  5
2CB
330
1F
100
AcDbEntity
  8
0
  6
Continuous
 62
     7
370
    25
100
AcDbLine
 10
80.7256499051
 20
86.031189962
 30
0.0
 11
80.7256499051
 21
78.6483444274
 31
0.0
  0
LINE
  5
2CC
330
1F
100
AcDbEntity
  8
0
  6
Continuous
 62
     7
370
    25
100
AcDbLine
 10
99.2743500949
 20
86.031189962
 30
0.0
 11
80.7256499051
 21
86.031189962
 31
0.0
  0
LINE
  5
2CD
330
1F
100
AcDbEntity
  8
0
  6
Continuous
 62
     7
370
    25
100
AcDbLine
 10
99.2743500949
 20
86.031189962
 30
0.0
 11
99.2743500949
 21
78.6483444274
 31
0.0
  0
LINE
  5
2CE
330
1F
100
AcDbEntity
  8
0
  6
Continuous
 62
     7
370
    25
100
AcDbLine
 10
99.2743500949
 20
78.6483444274
 30
0.0
 11
104.3580031766
 21
73.5646913456
 31
0.0
  0
LINE
  5
2CF
330
1F
100
AcDbEntity
  8
0
  6
Continuous
 62
     7
370
    25
100
AcDbLine
 10
104.3580031766
 20
73.5646913456
 30
0.0
 11
104.3580031766
 21
68.5433465519
 31
0.0
  0
LINE
  5
2D0
330
1F
100
AcDbEntity
  8
0
  6
Continuous
 62
     7
370
    25
100
AcDbLine
 10
104.3580031766
 20
68.5433465519
 30
0.0
 11
105.4013497285
 21
67.5
 31
0.0
  0
LINE
  5
2D1
330
1F
100
AcDbEntity
  8
0
  6
Continuous
 62
     7
370
    25
100
AcDbLine
 10
105.4013497285
 20
67.5
 30
0.0
 11
104.2376334525
 21
66.336283724
 31
0.0
  0
LINE
  5
2D2
330
1F
100
AcDbEntity
  8
0
  6
Continuous
 62
     7
370
    25
100
AcDbLine
 10
104.2376334525
 20
66.336283724
 30
0.0
 11
104.2376334525
 21
60.4366380301
 31
0.0
  0
ARC
  5
2D3
330
1F
100
AcDbEntity
  8
0
  6
Continuous
 62
     7
370
    25
100
AcDbCircle
 10
90.0
 20
45.0
 30
0.0
 40
21.00000000000001
100
AcDbArc
 50
42.6861924652
 51
47.3138075348
  0
LINE
  5
2D4
330
1F
100
AcDbEntity
  8
0
  6
Continuous
 62
     7
370
    25
100
AcDbLine
 10
105.4366380301
 20
59.2376334525
 30
0.0
 11
111.4163979774
 21
59.2376334525
 31
0.0
  0
LINE
  5
2D5
330
1F
100
AcDbEntity
  8
0
  6
Continuous
 62
     7
370
    25
100
AcDbLine
 10
111.4163979774
 20
59.2376334525
 30
0.0
 11
112.5060589868
 21
60.3272944619
 31
0.0
  0
LINE
  5
2D6
330
1F
100
AcDbEntity
  8
0
  6
Continuous
 62
     7
370
    25
100
AcDbLine
 10
112.5060589868
 20
60.3272944619
 30
0.0
 11
113.5957199962
 21
59.2376334525
 31
0.0
  0
LINE
  5
2D7
330
1F
100
AcDbEntity
  8
0
  6
Continuous
 62
     7
370
    25
100
AcDbLine
 10
113.5957199962
 20
59.2376334525
 30
0.0
 11
115.6911923576
 21
59.2376334525
 31
0.0
  0
ARC
  5
2D8
330
1F
100
AcDbEntity
  8
0
  6
Continuous
 62
     7
370
    25
100
AcDbCircle
 10
115.6911923576
 20
57.2451851869
 30
0.0
 40
1.992448265578489
100
AcDbArc
 50
0.0
 51
90.0
  0
LINE
  5
2D9
330
1F
100
AcDbEntity
  8
0
  6
Continuous
 62
     7
370
    25
100
AcDbLine
 10
117.6836406232
 20
32.7548148131
 30
0.0
 11
117.6836406232
 21
57.2451851869
 31
0.0
  0
ARC
  5
2DA
330
1F
100
AcDbEntity
  8
0
  6
Continuous
 62
     7
370
    25
100
AcDbCircle
 10
115.6911923576
 20
32.7548148131
 30
0.0
 40
1.992448265578489
100
AcDbArc
 50
270.0
 51
0.0
  0
LINE
  5
2DB
330
1F
100
AcDbEntity
  8
0
  6
Continuous
 62
     7
370
    25
100
AcDbLine
 10
113.5957199962
 20
30.7623665475
 30
0.0
 11
115.6911923576
 21
30.7623665475
 31
0.0
  0
LINE
  5
2DC
330
1F
100
AcDbEntity
  8
0
  6
Continuous
 62
     7
370
    25
100
AcDbLine
 10
112.5060589868
 20
29.6727055381
 30
0.0
 11
113.5957199962
 21
30.7623665475
 31
0.0
  0
LINE
  5
2DD
330
1F
100
AcDbEntity
  8
0
  6
Continuous
 62
     7
370
    25
100
AcDbLine
 10
111.4163979774
 20
30.7623665475
 30
0.0
 11
112.5060589868
 21
29.6727055381
 31
0.0
  0
LINE
  5
2DE
330
1F
100
AcDbEntity
  8
0
  6
Continuous
 62
     7
370
    25
100
AcDbLine
 10
105.4366380301
 20
30.7623665475
 30
0.0
 11
111.4163979774
 21
30.7623665475
 31
0.0
  0
ARC
  5
2DF
330
1F
100
AcDbEntity
  8
0
  6
Continuous
 62
     7
370
    25
100
AcDbCircle
 10
90.0
 20
45.0
 30
0.0
 40
21.0
100
AcDbArc
 50
312.6861924652
 51
317.3138075348
  0
LINE
  5
2E0
330
1F
100
AcDbEntity
  8
0
  6
Continuous
 62
     7
370
    25
100
AcDbLine
 10
104.2376334525
 20
23.663716276
 30
0.0
 11
104.2376334525
 21
29.5633619699
 31
0.0
  0
LINE
  5
2E1
330
1F
100
AcDbEntity
  8
0
  6
Continuous
 62
     7
370
    25
100
AcDbLine
 10
105.4013497285
 20
22.5
 30
0.0
 11
104.2376334525
 21
23.663716276
 31
0.0
  0
LINE
  5
2E2
330
1F
100
AcDbEntity
  8
0
  6
Continuous
 62
     7
370
    25
100
AcDbLine
 10
104.3580031766
 20
21.4566534481
 30
0.0
 11
105.4013497285
 21
22.5
 31
0.0
  0
LINE
  5
2E3
330
1F
100
AcDbEntity
  8
0
  6
Continuous
 62
     7
370
    25
100
AcDbLine
 10
104.3580031766
 20
16.4353086544
 30
0.0
 11
104.3580031766
 21
21.4566534481
 31
0.0
  0
LINE
  5
2E4
330
1F
100
AcDbEntity
  8
0
  6
Continuous
 62
     7
370
    25
100
AcDbLine
 10
99.2743500949
 20
11.3516555726
 30
0.0
 11
104.3580031766
 21
16.4353086544
 31
0.0
  0
LINE
  5
2E5
330
1F
100
AcDbEntity
  8
0
  6
Continuous
 62
     7
370
    25
100
AcDbLine
 10
99.2743500949
 20
3.968810038
 30
0.0
 11
99.2743500949
 21
11.3516555726
 31
0.0
  0
LINE
  5
2E6
330
1F
100
AcDbEntity
  8
0
  6
Continuous
 62
     7
370
    25
100
AcDbLine
 10
99.2743500949
 20
3.968810038
 30
0.0
 11
80.7256499051
 21
3.968810038
 31
0.0
  0
LINE
  5
2E7
330
1F
100
AcDbEntity
  8
0
  6
Continuous
 62
     7
370
    25
100
AcDbLine
 10
80.7256499051
 20
3.968810038
 30
0.0
 11
80.7256499051
 21
11.3516555726
 31
0.0
  0
LINE
  5
2E8
330
1F
100
AcDbEntity
  8
0
  6
Continuous
 62
     7
370
    25
100
AcDbLine
 10
80.7256499051
 20
11.3516555726
 30
0.0
 11
75.6419968234
 21
16.4353086544
 31
0.0
  0
LINE
  5
2E9
330
1F
100
AcDbEntity
  8
0
  6
Continuous
 62
     7
370
    25
100
AcDbLine
 10
75.6419968234
 20
16.4353086544
 30
0.0
 11
75.6419968234
 21
21.4566534481
 31
0.0
  0
LINE
  5
2EA
330
1F
100
AcDbEntity
  8
0
  6
Continuous
 62
     7
370
    25
100
AcDbLine
 10
75.6419968234
 20
21.4566534481
 30
0.0
 11
74.5986502715
 21
22.5
 31
0.0
  0
LINE
  5
2EB
330
1F
100
AcDbEntity
  8
0
  6
Continuous
 62
     7
370
    25
100
AcDbLine
 10
74.5986502715
 20
22.5
 30
0.0
 11
75.7623665475
 21
23.663716276
 31
0.0
  0
LINE
  5
2EC
330
1F
100
AcDbEntity
  8
0
  6
Continuous
 62
     7
370
    25
100
AcDbLine
 10
75.7623665475
 20
23.663716276
 30
0.0
 11
75.7623665475
 21
29.5633619699
 31
0.0
  0
ARC
  5
2ED
330
1F
100
AcDbEntity
  8
0
  6
Continuous
 62
     7
370
    25
100
AcDbCircle
 10
90.0
 20
45.0
 30
0.0
 40
21.00000000000001
100
AcDbArc
 50
222.6861924652
 51
227.3138075348
  0
LINE
  5
2EE
330
1F
100
AcDbEntity
  8
0
  6
Continuous
 62
     7
370
    25
100
AcDbLine
 10
74.5633619699
 20
30.7623665475
 30
0.0
 11
68.5836020226
 21
30.7623665475
 31
0.0
  0
LINE
  5
2EF
330
1F
100
AcDbEntity
  8
0
  6
Continuous
 62
     7
370
    25
100
AcDbLine
 10
68.5836020226
 20
30.7623665475
 30
0.0
 11
67.4939410132
 21
29.6727055381
 31
0.0
  0
LINE
  5
2F0
330
1F
100
AcDbEntity
  8
0
  6
Continuous
 62
     7
370
    25
100
AcDbLine
 10
67.4939410132
 20
29.6727055381
 30
0.0
 11
66.4042800038
 21
30.7623665475
 31
0.0
  0
LINE
  5
2F1
330
1F
100
AcDbEntity
  8
0
  6
Continuous
 62
     7
370
    25
100
AcDbLine
 10
66.4042800038
 20
30.7623665475
 30
0.0
 11
64.3088076424
 21
30.7623665475
 31
0.0
  0
ARC
  5
2F2
330
1F
100
AcDbEntity
  8
0
  6
Continuous
 62
     7
370
    25
100
AcDbCircle
 10
64.3088076424
 20
32.7548148131
 30
0.0
 40
1.992448265578481
100
AcDbArc
 50
180.0
 51
270.0
  0
ARC
  5
2F3
330
1F
100
AcDbEntity
  8
0
  6
Continuous
 62
     7
370
    25
100
AcDbCircle
 10
112.5
 20
22.5
 30
0.0
 40
4.500000000000013
100
AcDbArc
 50
243.0386289048
 51
296.9613710952
  0
LINE
  5
2F4
330
1F
100
AcDbEntity
  8
0
  6
Continuous
 62
     7
370
    25
100
AcDbLine
 10
110.4597464463
 20
18.4890941875
 30
0.0
 11
109.7112757043
 21
17.7406234456
 31
0.0
  0
ARC
  5
2F5
330
1F
100
AcDbEntity
  8
0
  6
Continuous
 62
     7
370
    25
100
AcDbCircle
 10
109.9234077387
 20
17.5284914112
 30
0.0
 40
0.3000000000000296
100
AcDbArc
 50
135.0
 51
225.0
  0
LINE
  5
2F6
330
1F
100
AcDbEntity
  8
0
  6
Continuous
 62
     7
370
    25
100
AcDbLine
 10
109.7112757043
 20
17.3163593768
 30
0.0
 11
110.0801943924
 21
16.9474406887
 31
0.0
  0
ARC
  5
2F7
330
1F
100
AcDbEntity
  8
0
  6
Continuous
 62
     7
370
    25
100
AcDbCircle
 10
109.8680623581
 20
16.7353086544
 30
0.0
 40
0.3000000000000069
100
AcDbArc
 50
270.0
 51
45.0
  0
LINE
  5
2F8
330
1F
100
AcDbEntity
  8
0
  6
Continuous
 62
     7
370
    25
100
AcDbLine
 10
109.8680623581
 20
16.4353086544
 30
0.0
 11
107.512974733
 21
16.4353086544
 31
0.0
  0
LINE
  5
2F9
330
1F
100
AcDbEntity
  8
0
  6
Continuous
 62
     7
370
    25
100
AcDbLine
 10
107.512974733
 20
16.4353086544
 30
0.0
 11
106.4353086544
 21
17.512974733
 31
0.0
  0
LINE
  5
2FA
330
1F
100
AcDbEntity
  8
0
  6
Continuous
 62
     7
370
    25
100
AcDbLine
 10
106.4353086544
 20
17.512974733
 30
0.0
 11
106.4353086544
 21
19.8680623581
 31
0.0
  0
ARC
  5
2FB
330
1F
100
AcDbEntity
  8
0
  6
Continuous
 62
     7
370
    25
100
AcDbCircle
 10
106.7353086544
 20
19.8680623581
 30
0.0
 40
0.3000000000000114
100
AcDbArc
 50
45.0
 51
180.0
  0
LINE
  5
2FC
330
1F
100
AcDbEntity
  8
0
  6
Continuous
 62
     7
370
    25
100
AcDbLine
 10
106.9474406887
 20
20.0801943924
 30
0.0
 11
107.3163593768
 21
19.7112757043
 31
0.0
  0
ARC
  5
2FD
330
1F
100
AcDbEntity
  8
0
  6
Continuous
 62
     7
370
    25
100
AcDbCircle
 10
107.5284914112
 20
19.9234077387
 30
0.0
 40
0.2999999999999994
100
AcDbArc
 50
225.0
 51
315.0
  0
LINE
  5
2FE
330
1F
100
AcDbEntity
  8
0
  6
Continuous
 62
     7
370
    25
100
AcDbLine
 10
107.7406234456
 20
19.7112757043
 30
0.0
 11
108.4890941875
 21
20.4597464463
 31
0.0
  0
ARC
  5
2FF
330
1F
100
AcDbEntity
  8
0
  6
Continuous
 62
     7
370
    25
100
AcDbCircle
 10
112.5
 20
22.5
 30
0.0
 40
4.500000000000032
100
AcDbArc
 50
153.0386289048
 51
206.9613710952
  0
LINE
  5
300
330
1F
100
AcDbEntity
  8
0
  6
Continuous
 62
     7
370
    25
100
AcDbLine
 10
108.4890941875
 20
24.5402535537
 30
0.0
 11
107.7406234456
 21
25.2887242957
 31
0.0
  0
ARC
  5
301
330
1F
100
AcDbEntity
  8
0
  6
Continuous
 62
     7
370
    25
100
AcDbCircle
 10
107.5284914112
 20
25.0765922613
 30
0.0
 40
0.300000000000017
100
AcDbArc
 50
45.0
 51
135.0
  0
LINE
  5
302
330
1F
100
AcDbEntity
  8
0
  6
Continuous
 62
     7
370
    25
100
AcDbLine
 10
107.3163593768
 20
25.2887242957
 30
0.0
 11
106.9474406887
 21
24.9198056076
 31
0.0
  0
ARC
  5
303
330
1F
100
AcDbEntity
  8
0
  6
Continuous
 62
     7
370
    25
100
AcDbCircle
 10
106.7353086544
 20
25.1319376419
 30
0.0
 40
0.2999999999999972
100
AcDbArc
 50
180.0
 51
315.0
  0
LINE
  5
304
330
1F
100
AcDbEntity
  8
0
  6
Continuous
 62
     7
370
    25
100
AcDbLine
 10
106.4353086544
 20
25.1319376419
 30
0.0
 11
106.4353086544
 21
27.487025267
 31
0.0
  0
LINE
  5
305
330
1F
100
AcDbEntity
  8
0
  6
Continuous
 62
     7
370
    25
100
AcDbLine
 10
106.4353086544
 20
27.487025267
 30
0.0
 11
107.512974733
 21
28.5646913456
 31
0.0
  0
LINE
  5
306
330
1F
100
AcDbEntity
  8
0
  6
Continuous
 62
     7
370
    25
100
AcDbLine
 10
107.512974733
 20
28.5646913456
 30
0.0
 11
109.8680623581
 21
28.5646913456
 31
0.0
  0
ARC
  5
307
330
1F
100
AcDbEntity
  8
0
  6
Continuous
 62
     7
370
    25
100
AcDbCircle
 10
109.8680623581
 20
28.2646913456
 30
0.0
 40
0.3000000000000044
100
AcDbArc
 50
315.0
 51
90.0
  0
LINE
  5
308
330
1F
100
AcDbEntity
  8
0
  6
Continuous
 62
     7
370
    25
100
AcDbLine
 10
110.0801943924
 20
28.0525593113
 30
0.0
 11
109.7112757043
 21
27.6836406232
 31
0.0
  0
ARC
  5
309
330
1F
100
AcDbEntity
  8
0
  6
Continuous
 62
     7
370
    25
100
AcDbCircle
 10
109.9234077387
 20
27.4715085888
 30
0.0
 40
0.3000000000000019
100
AcDbArc
 50
135.0
 51
225.0
  0
LINE
  5
30A
330
1F
100
AcDbEntity
  8
0
  6
Continuous
 62
     7
370
    25
100
AcDbLine
 10
109.7112757043
 20
27.2593765544
 30
0.0
 11
110.4597464463
 21
26.5109058125
 31
0.0
  0
ARC
  5
30B
330
1F
100
AcDbEntity
  8
0
  6
Continuous
 62
     7
370
    25
100
AcDbCircle
 10
112.5
 20
22.5
 30
0.0
 40
4.50000000000001
100
AcDbArc
 50
63.0386289048
 51
116.9613710952
  0
LINE
  5
30C
330
1F
100
AcDbEntity
  8
0
  6
Continuous
 62
     7
370
    25
100
AcDbLine
 10
114.5402535537
 20
26.5109058125
 30
0.0
 11
115.2887242957
 21
27.2593765544
 31
0.0
  0
ARC
  5
30D
330
1F
100
AcDbEntity
  8
0
  6
Continuous
 62
     7
370
    25
100
AcDbCircle
 10
115.0765922613
 20
27.4715085888
 30
0.0
 40
0.2999999999999994
100
AcDbArc
 50
315.0
 51
45.0
  0
LINE
  5
30E
330
1F
100
AcDbEntity
  8
0
  6
Continuous
 62
     7
370
    25
100
AcDbLine
 10
115.2887242957
 20
27.6836406232
 30
0.0
 11
114.9198056076
 21
28.0525593113
 31
0.0
  0
ARC
  5
30F
330
1F
100
AcDbEntity
  8
0
  6
Continuous
 62
     7
370
    25
100
AcDbCircle
 10
115.1319376419
 20
28.2646913456
 30
0.0
 40
0.3000000000000007
100
AcDbArc
 50
90.0
 51
225.0
  0
LINE
  5
310
330
1F
100
AcDbEntity
  8
0
  6
Continuous
 62
     7
370
    25
100
AcDbLine
 10
115.1319376419
 20
28.5646913456
 30
0.0
 11
117.487025267
 21
28.5646913456
 31
0.0
  0
LINE
  5
311
330
1F
100
AcDbEntity
  8
0
  6
Continuous
 62
     7
370
    25
100
AcDbLine
 10
117.487025267
 20
28.5646913456
 30
0.0
 11
118.5646913456
 21
27.487025267
 31
0.0
  0
LINE
  5
312
330
1F
100
AcDbEntity
  8
0
  6
Continuous
 62
     7
370
    25
100
AcDbLine
 10
118.5646913456
 20
27.487025267
 30
0.0
 11
118.5646913456
 21
25.1319376419
 31
0.0
  0
ARC
  5
313
330
1F
100
AcDbEntity
  8
0
  6
Continuous
 62
     7
370
    25
100
AcDbCircle
 10
118.2646913456
 20
25.1319376419
 30
0.0
 40
0.3000000000000114
100
AcDbArc
 50
225.0
 51
0.0
  0
LINE
  5
314
330
1F
100
AcDbEntity
  8
0
  6
Continuous
 62
     7
370
    25
100
AcDbLine
 10
118.0525593113
 20
24.9198056076
 30
0.0
 11
117.6836406232
 21
25.2887242957
 31
0.0
  0
ARC
  5
315
330
1F
100
AcDbEntity
  8
0
  6
Continuous
 62
     7
370
    25
100
AcDbCircle
 10
117.4715085888
 20
25.0765922613
 30
0.0
 40
0.3000000000000069
100
AcDbArc
 50
45.0
 51
135.0
  0
LINE
  5
316
330
1F
100
AcDbEntity
  8
0
  6
Continuous
 62
     7
370
    25
100
AcDbLine
 10
117.2593765544
 20
25.2887242957
 30
0.0
 11
116.5109058125
 21
24.5402535537
 31
0.0
  0
ARC
  5
317
330
1F
100
AcDbEntity
  8
0
  6
Continuous
 62
     7
370
    25
100
AcDbCircle
 10
112.5
 20
22.5
 30
0.0
 40
4.499999999999989
100
AcDbArc
 50
333.0386289048
 51
26.9613710952
  0
LINE
  5
318
330
1F
100
AcDbEntity
  8
0
  6
Continuous
 62
     7
370
    25
100
AcDbLine
 10
116.5109058125
 20
20.4597464463
 30
0.0
 11
117.2593765544
 21
19.7112757043
 31
0.0
  0
ARC
  5
319
330
1F
100
AcDbEntity
  8
0
  6
Continuous
 62
     7
370
    25
100
AcDbCircle
 10
117.4715085888
 20
19.9234077387
 30
0.0
 40
0.3000000000000195
100
AcDbArc
 50
225.0
 51
315.0
  0
LINE
  5
31A
330
1F
100
AcDbEntity
  8
0
  6
Continuous
 62
     7
370
    25
100
AcDbLine
 10
117.6836406232
 20
19.7112757043
 30
0.0
 11
118.0525593113
 21
20.0801943924
 31
0.0
  0
ARC
  5
31B
330
1F
100
AcDbEntity
  8
0
  6
Continuous
 62
     7
370
    25
100
AcDbCircle
 10
118.2646913456
 20
19.8680623581
 30
0.0
 40
0.2999999999999972
100
AcDbArc
 50
360.0
 51
135.0
  0
LINE
  5
31C
330
1F
100
AcDbEntity
  8
0
  6
Continuous
 62
     7
370
    25
100
AcDbLine
 10
118.5646913456
 20
19.8680623581
 30
0.0
 11
118.5646913456
 21
17.512974733
 31
0.0
  0
LINE
  5
31D
330
1F
100
AcDbEntity
  8
0
  6
Continuous
 62
     7
370
    25
100
AcDbLine
 10
118.5646913456
 20
17.512974733
 30
0.0
 11
117.487025267
 21
16.4353086544
 31
0.0
  0
LINE
  5
31E
330
1F
100
AcDbEntity
  8
0
  6
Continuous
 62
     7
370
    25
100
AcDbLine
 10
117.487025267
 20
16.4353086544
 30
0.0
 11
115.1319376419
 21
16.4353086544
 31
0.0
  0
ARC
  5
31F
330
1F
100
AcDbEntity
  8
0
  6
Continuous
 62
     7
370
    25
100
AcDbCircle
 10
115.1319376419
 20
16.7353086544
 30
0.0
 40
0.3000000000000185
100
AcDbArc
 50
135.0
 51
270.0
  0
LINE
  5
320
330
1F
100
AcDbEntity
  8
0
  6
Continuous
 62
     7
370
    25
100
AcDbLine
 10
114.9198056076
 20
16.9474406887
 30
0.0
 11
115.2887242957
 21
17.3163593768
 31
0.0
  0
ARC
  5
321
330
1F
100
AcDbEntity
  8
0
  6
Continuous
 62
     7
370
    25
100
AcDbCircle
 10
115.0765922613
 20
17.5284914112
 30
0.0
 40
0.3000000000000019
100
AcDbArc
 50
315.0
 51
45.0
  0
LINE
  5
322
330
1F
100
AcDbEntity
  8
0
  6
Continuous
 62
     7
370
    25
100
AcDbLine
 10
115.2887242957
 20
17.7406234456
 30
0.0
 11
114.5402535537
 21
18.4890941875
 31
0.0
  0
ARC
  5
323
330
1F
100
AcDbEntity
  8
0
  6
Continuous
 62
     7
370
    25
100
AcDbCircle
 10
174.0
 20
6.0
 30
0.0
 40
3.550000000000006
100
AcDbArc
 50
61.361103524
 51
118.638896476
  0
LINE
  5
324
330
1F
100
AcDbEntity
  8
0
  6
Continuous
 62
     7
370
    25
100
AcDbLine
 10
175.7014716377
 20
9.1156852001
 30
0.0
 11
176.2484150056
 21
9.662628568
 31
0.0
  0
ARC
  5
325
330
1F
100
AcDbEntity
  8
0
  6
Continuous
 62
     7
370
    25
100
AcDbCircle
 10
176.9555217868
 20
8.9555217868
 30
0.0
 40
1.0
100
AcDbArc
 50
315.0
 51
135.0
  0
LINE
  5
326
330
1F
100
AcDbEntity
  8
0
  6
Continuous
 62
     7
370
    25
100
AcDbLine
 10
177.662628568
 20
8.2484150056
 30
0.0
 11
177.1156852001
 21
7.7014716377
 31
0.0
  0
ARC
  5
327
330
1F
100
AcDbEntity
  8
0
  6
Continuous
 62
     7
370
    25
100
AcDbCircle
 10
174.0
 20
6.0
 30
0.0
 40
3.550000000000004
100
AcDbArc
 50
331.361103524
 51
28.638896476
  0
LINE
  5
328
330
1F
100
AcDbEntity
  8
0
  6
Continuous
 62
     7
370
    25
100
AcDbLine
 10
177.1156852001
 20
4.2985283623
 30
0.0
 11
177.662628568
 21
3.7515849944
 31
0.0
  0
ARC
  5
329
330
1F
100
AcDbEntity
  8
0
  6
Continuous
 62
     7
370
    25
100
AcDbCircle
 10
176.9555217868
 20
3.0444782132
 30
0.0
 40
1.000000000000001
100
AcDbArc
 50
225.0
 51
45.0
  0
LINE
  5
32A
330
1F
100
AcDbEntity
  8
0
  6
Continuous
 62
     7
370
    25
100
AcDbLine
 10
176.2484150056
 20
2.337371432
 30
0.0
 11
175.7014716377
 21
2.8843147999
 31
0.0
  0
ARC
  5
32B
330
1F
100
AcDbEntity
  8
0
  6
Continuous
 62
     7
370
    25
100
AcDbCircle
 10
174.0
 20
6.0
 30
0.0
 40
3.55000000000002
100
AcDbArc
 50
241.361103524
 51
298.638896476
  0
LINE
  5
32C
330
1F
100
AcDbEntity
  8
0
  6
Continuous
 62
     7
370
    25
100
AcDbLine
 10
172.2985283623
 20
2.8843147999
 30
0.0
 11
171.7515849944
 21
2.337371432
 31
0.0
  0
ARC
  5
32D
330
1F
100
AcDbEntity
  8
0
  6
Continuous
 62
     7
370
    25
100
AcDbCircle
 10
171.0444782132
 20
3.0444782132
 30
0.0
 40
1.000000000000001
100
AcDbArc
 50
135.0
 51
315.0
  0
LINE
  5
32E
330
1F
100
AcDbEntity
  8
0
  6
Continuous
 62
     7
370
    25
100
AcDbLine
 10
170.337371432
 20
3.7515849944
 30
0.0
 11
170.8843147999
 21
4.2985283623
 31
0.0
  0
ARC
  5
32F
330
1F
100
AcDbEntity
  8
0
  6
Continuous
 62
     7
370
    25
100
AcDbCircle
 10
174.0
 20
6.0
 30
0.0
 40
3.55000000000003
100
AcDbArc
 50
151.361103524
 51
208.638896476
  0
LINE
  5
330
330
1F
100
AcDbEntity
  8
0
  6
Continuous
 62
     7
370
    25
100
AcDbLine
 10
170.8843147999
 20
7.7014716377
 30
0.0
 11
170.337371432
 21
8.2484150056
 31
0.0
  0
ARC
  5
331
330
1F
100
AcDbEntity
  8
0
  6
Continuous
 62
     7
370
    25
100
AcDbCircle
 10
171.0444782132
 20
8.9555217868
 30
0.0
 40
0.9999999999999968
100
AcDbArc
 50
45.0
 51
225.0
  0
LINE
  5
332
330
1F
100
AcDbEntity
  8
0
  6
Continuous
 62
     7
370
    25
100
AcDbLine
 10
171.7515849944
 20
9.662628568
 30
0.0
 11
172.2985283623
 21
9.1156852001
 31
0.0
  0
LINE
  5
333
330
1F
100
AcDbEntity
  8
0
  6
Continuous
 62
     7
370
    25
100
AcDbLine
 10
151.4353086544
 20
25.1319376419
 30
0.0
 11
151.4353086544
 21
27.487025267
 31
0.0
  0
LINE
  5
334
330
1F
100
AcDbEntity
  8
0
  6
Continuous
 62
     7
370
    25
100
AcDbLine
 10
151.4353086544
 20
27.487025267
 30
0.0
 11
152.512974733
 21
28.5646913456
 31
0.0
  0
LINE
  5
335
330
1F
100
AcDbEntity
  8
0
  6
Continuous
 62
     7
370
    25
100
AcDbLine
 10
152.512974733
 20
28.5646913456
 30
0.0
 11
154.8680623581
 21
28.5646913456
 31
0.0
  0
ARC
  5
336
330
1F
100
AcDbEntity
  8
0
  6
Continuous
 62
     7
370
    25
100
AcDbCircle
 10
154.8680623581
 20
28.2646913456
 30
0.0
 40
0.3000000000000007
100
AcDbArc
 50
315.0
 51
90.0
  0
LINE
  5
337
330
1F
100
AcDbEntity
  8
0
  6
Continuous
 62
     7
370
    25
100
AcDbLine
 10
155.0801943924
 20
28.0525593113
 30
0.0
 11
154.7112757043
 21
27.6836406232
 31
0.0
  0
ARC
  5
338
330
1F
100
AcDbEntity
  8
0
  6
Continuous
 62
     7
370
    25
100
AcDbCircle
 10
154.9234077387
 20
27.4715085888
 30
0.0
 40
0.2999999999999994
100
AcDbArc
 50
135.0
 51
225.0
  0
LINE
  5
339
330
1F
100
AcDbEntity
  8
0
  6
Continuous
 62
     7
370
    25
100
AcDbLine
 10
154.7112757043
 20
27.2593765544
 30
0.0
 11
155.4597464463
 21
26.5109058125
 31
0.0
  0
ARC
  5
33A
330
1F
100
AcDbEntity
  8
0
  6
Continuous
 62
     7
370
    25
100
AcDbCircle
 10
157.5
 20
22.5
 30
0.0
 40
4.500000000000007
100
AcDbArc
 50
63.0386289048
 51
116.9613710952
  0
LINE
  5
33B
330
1F
100
AcDbEntity
  8
0
  6
Continuous
 62
     7
370
    25
100
AcDbLine
 10
159.5402535537
 20
26.5109058125
 30
0.0
 11
160.2887242957
 21
27.2593765544
 31
0.0
  0
ARC
  5
33C
330
1F
100
AcDbEntity
  8
0
  6
Continuous
 62
     7
370
    25
100
AcDbCircle
 10
160.0765922613
 20
27.4715085888
 30
0.0
 40
0.3000000000000095
100
AcDbArc
 50
315.0
 51
45.0
  0
LINE
  5
33D
330
1F
100
AcDbEntity
  8
0
  6
Continuous
 62
     7
370
    25
100
AcDbLine
 10
160.2887242957
 20
27.6836406232
 30
0.0
 11
159.9198056076
 21
28.0525593113
 31
0.0
  0
ARC
  5
33E
330
1F
100
AcDbEntity
  8
0
  6
Continuous
 62
     7
370
    25
100
AcDbCircle
 10
160.1319376419
 20
28.2646913456
 30
0.0
 40
0.300000000000022
100
AcDbArc
 50
90.0
 51
225.0
  0
LINE
  5
33F
330
1F
100
AcDbEntity
  8
0
  6
Continuous
 62
     7
370
    25
100
AcDbLine
 10
160.1319376419
 20
28.5646913456
 30
0.0
 11
162.487025267
 21
28.5646913456
 31
0.0
  0
LINE
  5
340
330
1F
100
AcDbEntity
  8
0
  6
Continuous
 62
     7
370
    25
100
AcDbLine
 10
162.487025267
 20
28.5646913456
 30
0.0
 11
163.5646913456
 21
27.487025267
 31
0.0
  0
LINE
  5
341
330
1F
100
AcDbEntity
  8
0
  6
Continuous
 62
     7
370
    25
100
AcDbLine
 10
163.5646913456
 20
27.487025267
 30
0.0
 11
163.5646913456
 21
25.1319376419
 31
0.0
  0
ARC
  5
342
330
1F
100
AcDbEntity
  8
0
  6
Continuous
 62
     7
370
    25
100
AcDbCircle
 10
163.2646913456
 20
25.1319376419
 30
0.0
 40
0.3000000000000398
100
AcDbArc
 50
225.0
 51
0.0
  0
LINE
  5
343
330
1F
100
AcDbEntity
  8
0
  6
Continuous
 62
     7
370
    25
100
AcDbLine
 10
163.0525593113
 20
24.9198056076
 30
0.0
 11
162.6836406232
 21
25.2887242957
 31
0.0
  0
ARC
  5
344
330
1F
100
AcDbEntity
  8
0
  6
Continuous
 62
     7
370
    25
100
AcDbCircle
 10
162.4715085888
 20
25.0765922613
 30
0.0
 40
0.3000000000000195
100
AcDbArc
 50
45.0
 51
135.0
  0
LINE
  5
345
330
1F
100
AcDbEntity
  8
0
  6
Continuous
 62
     7
370
    25
100
AcDbLine
 10
162.2593765544
 20
25.2887242957
 30
0.0
 11
161.5109058125
 21
24.5402535537
 31
0.0
  0
ARC
  5
346
330
1F
100
AcDbEntity
  8
0
  6
Continuous
 62
     7
370
    25
100
AcDbCircle
 10
157.5
 20
22.5
 30
0.0
 40
4.500000000000032
100
AcDbArc
 50
333.0386289048
 51
26.9613710952
  0
LINE
  5
347
330
1F
100
AcDbEntity
  8
0
  6
Continuous
 62
     7
370
    25
100
AcDbLine
 10
161.5109058125
 20
20.4597464463
 30
0.0
 11
162.2593765544
 21
19.7112757043
 31
0.0
  0
ARC
  5
348
330
1F
100
AcDbEntity
  8
0
  6
Continuous
 62
     7
370
    25
100
AcDbCircle
 10
162.4715085888
 20
19.9234077387
 30
0.0
 40
0.3000000000000371
100
AcDbArc
 50
225.0
 51
315.0
  0
LINE
  5
349
330
1F
100
AcDbEntity
  8
0
  6
Continuous
 62
     7
370
    25
100
AcDbLine
 10
162.6836406232
 20
19.7112757043
 30
0.0
 11
163.0525593113
 21
20.0801943924
 31
0.0
  0
ARC
  5
34A
330
1F
100
AcDbEntity
  8
0
  6
Continuous
 62
     7
370
    25
100
AcDbCircle
 10
163.2646913456
 20
19.8680623581
 30
0.0
 40
0.3000000000000398
100
AcDbArc
 50
0.0
 51
135.0
  0
LINE
  5
34B
330
1F
100
AcDbEntity
  8
0
  6
Continuous
 62
     7
370
    25
100
AcDbLine
 10
163.5646913456
 20
19.8680623581
 30
0.0
 11
163.5646913456
 21
17.512974733
 31
0.0
  0
LINE
  5
34C
330
1F
100
AcDbEntity
  8
0
  6
Continuous
 62
     7
370
    25
100
AcDbLine
 10
163.5646913456
 20
17.512974733
 30
0.0
 11
162.487025267
 21
16.4353086544
 31
0.0
  0
LINE
  5
34D
330
1F
100
AcDbEntity
  8
0
  6
Continuous
 62
     7
370
    25
100
AcDbLine
 10
162.487025267
 20
16.4353086544
 30
0.0
 11
160.1319376419
 21
16.4353086544
 31
0.0
  0
ARC
  5
34E
330
1F
100
AcDbEntity
  8
0
  6
Continuous
 62
     7
370
    25
100
AcDbCircle
 10
160.1319376419
 20
16.7353086544
 30
0.0
 40
0.3000000000000195
100
AcDbArc
 50
135.0
 51
270.0
  0
LINE
  5
34F
330
1F
100
AcDbEntity
  8
0
  6
Continuous
 62
     7
370
    25
100
AcDbLine
 10
159.9198056076
 20
16.9474406887
 30
0.0
 11
160.2887242957
 21
17.3163593768
 31
0.0
  0
ARC
  5
350
330
1F
100
AcDbEntity
  8
0
  6
Continuous
 62
     7
370
    25
100
AcDbCircle
 10
160.0765922613
 20
17.5284914112
 30
0.0
 40
0.3000000000000044
100
AcDbArc
 50
315.0
 51
45.0
  0
LINE
  5
351
330
1F
100
AcDbEntity
  8
0
  6
Continuous
 62
     7
370
    25
100
AcDbLine
 10
160.2887242957
 20
17.7406234456
 30
0.0
 11
159.5402535537
 21
18.4890941875
 31
0.0
  0
ARC
  5
352
330
1F
100
AcDbEntity
  8
0
  6
Continuous
 62
     7
370
    25
100
AcDbCircle
 10
157.5
 20
22.5
 30
0.0
 40
4.500000000000013
100
AcDbArc
 50
243.0386289048
 51
296.9613710952
  0
LINE
  5
353
330
1F
100
AcDbEntity
  8
0
  6
Continuous
 62
     7
370
    25
100
AcDbLine
 10
155.4597464463
 20
18.4890941875
 30
0.0
 11
154.7112757043
 21
17.7406234456
 31
0.0
  0
ARC
  5
354
330
1F
100
AcDbEntity
  8
0
  6
Continuous
 62
     7
370
    25
100
AcDbCircle
 10
154.9234077387
 20
17.5284914112
 30
0.0
 40
0.300000000000012
100
AcDbArc
 50
135.0
 51
225.0
  0
LINE
  5
355
330
1F
100
AcDbEntity
  8
0
  6
Continuous
 62
     7
370
    25
100
AcDbLine
 10
154.7112757043
 20
17.3163593768
 30
0.0
 11
155.0801943924
 21
16.9474406887
 31
0.0
  0
ARC
  5
356
330
1F
100
AcDbEntity
  8
0
  6
Continuous
 62
     7
370
    25
100
AcDbCircle
 10
154.8680623581
 20
16.7353086544
 30
0.0
 40
0.3000000000000007
100
AcDbArc
 50
270.0
 51
45.0
  0
LINE
  5
357
330
1F
100
AcDbEntity
  8
0
  6
Continuous
 62
     7
370
    25
100
AcDbLine
 10
154.8680623581
 20
16.4353086544
 30
0.0
 11
152.512974733
 21
16.4353086544
 31
0.0
  0
LINE
  5
358
330
1F
100
AcDbEntity
  8
0
  6
Continuous
 62
     7
370
    25
100
AcDbLine
 10
152.512974733
 20
16.4353086544
 30
0.0
 11
151.4353086544
 21
17.512974733
 31
0.0
  0
LINE
  5
359
330
1F
100
AcDbEntity
  8
0
  6
Continuous
 62
     7
370
    25
100
AcDbLine
 10
151.4353086544
 20
17.512974733
 30
0.0
 11
151.4353086544
 21
19.8680623581
 31
0.0
  0
ARC
  5
35A
330
1F
100
AcDbEntity
  8
0
  6
Continuous
 62
     7
370
    25
100
AcDbCircle
 10
151.7353086544
 20
19.8680623581
 30
0.0
 40
0.3000000000000398
100
AcDbArc
 50
45.0
 51
180.0
  0
LINE
  5
35B
330
1F
100
AcDbEntity
  8
0
  6
Continuous
 62
     7
370
    25
100
AcDbLine
 10
151.9474406887
 20
20.0801943924
 30
0.0
 11
152.3163593768
 21
19.7112757043
 31
0.0
  0
ARC
  5
35C
330
1F
100
AcDbEntity
  8
0
  6
Continuous
 62
     7
370
    25
100
AcDbCircle
 10
152.5284914112
 20
19.9234077387
 30
0.0
 40
0.3000000000000296
100
AcDbArc
 50
225.0
 51
315.0
  0
LINE
  5
35D
330
1F
100
AcDbEntity
  8
0
  6
Continuous
 62
     7
370
    25
100
AcDbLine
 10
152.7406234456
 20
19.7112757043
 30
0.0
 11
153.4890941875
 21
20.4597464463
 31
0.0
  0
ARC
  5
35E
330
1F
100
AcDbEntity
  8
0
  6
Continuous
 62
     7
370
    25
100
AcDbCircle
 10
157.5
 20
22.5
 30
0.0
 40
4.499999999999988
100
AcDbArc
 50
153.0386289048
 51
206.9613710952
  0
LINE
  5
35F
330
1F
100
AcDbEntity
  8
0
  6
Continuous
 62
     7
370
    25
100
AcDbLine
 10
153.4890941875
 20
24.5402535537
 30
0.0
 11
152.7406234456
 21
25.2887242957
 31
0.0
  0
ARC
  5
360
330
1F
100
AcDbEntity
  8
0
  6
Continuous
 62
     7
370
    25
100
AcDbCircle
 10
152.5284914112
 20
25.0765922613
 30
0.0
 40
0.300000000000012
100
AcDbArc
 50
45.0
 51
135.0
  0
LINE
  5
361
330
1F
100
AcDbEntity
  8
0
  6
Continuous
 62
     7
370
    25
100
AcDbLine
 10
152.3163593768
 20
25.2887242957
 30
0.0
 11
151.9474406887
 21
24.9198056076
 31
0.0
  0
ARC
  5
362
330
1F
100
AcDbEntity
  8
0
  6
Continuous
 62
     7
370
    25
100
AcDbCircle
 10
151.7353086544
 20
25.1319376419
 30
0.0
 40
0.3000000000000114
100
AcDbArc
 50
180.0
 51
315.0
  0
ARC
  5
363
330
1F
100
AcDbEntity
  8
0
  6
Continuous
 62
     7
370
    25
100
AcDbCircle
 10
67.5
 20
67.5
 30
0.0
 40
4.500000000000017
100
AcDbArc
 50
63.0386289048
 51
116.9613710952
  0
LINE
  5
364
330
1F
100
AcDbEntity
  8
0
  6
Continuous
 62
     7
370
    25
100
AcDbLine
 10
69.5402535537
 20
71.5109058125
 30
0.0
 11
70.2887242957
 21
72.2593765544
 31
0.0
  0
ARC
  5
365
330
1F
100
AcDbEntity
  8
0
  6
Continuous
 62
     7
370
    25
100
AcDbCircle
 10
70.0765922613
 20
72.4715085888
 30
0.0
 40
0.3000000000000446
100
AcDbArc
 50
315.0
 51
45.0
  0
LINE
  5
366
330
1F
100
AcDbEntity
  8
0
  6
Continuous
 62
     7
370
    25
100
AcDbLine
 10
70.2887242957
 20
72.6836406232
 30
0.0
 11
69.9198056076
 21
73.0525593113
 31
0.0
  0
ARC
  5
367
330
1F
100
AcDbEntity
  8
0
  6
Continuous
 62
     7
370
    25
100
AcDbCircle
 10
70.1319376419
 20
73.2646913456
 30
0.0
 40
0.3000000000000145
100
AcDbArc
 50
90.0
 51
225.0
  0
LINE
  5
368
330
1F
100
AcDbEntity
  8
0
  6
Continuous
 62
     7
370
    25
100
AcDbLine
 10
70.1319376419
 20
73.5646913456
 30
0.0
 11
72.487025267
 21
73.5646913456
 31
0.0
  0
LINE
  5
369
330
1F
100
AcDbEntity
  8
0
  6
Continuous
 62
     7
370
    25
100
AcDbLine
 10
72.487025267
 20
73.5646913456
 30
0.0
 11
73.5646913456
 21
72.487025267
 31
0.0
  0
LINE
  5
36A
330
1F
100
AcDbEntity
  8
0
  6
Continuous
 62
     7
370
    25
100
AcDbLine
 10
73.5646913456
 20
72.487025267
 30
0.0
 11
73.5646913456
 21
70.1319376419
 31
0.0
  0
ARC
  5
36B
330
1F
100
AcDbEntity
  8
0
  6
Continuous
 62
     7
370
    25
100
AcDbCircle
 10
73.2646913456
 20
70.1319376419
 30
0.0
 40
0.3000000000000114
100
AcDbArc
 50
225.0
 51
0.0
  0
LINE
  5
36C
330
1F
100
AcDbEntity
  8
0
  6
Continuous
 62
     7
370
    25
100
AcDbLine
 10
73.0525593113
 20
69.9198056076
 30
0.0
 11
72.6836406232
 21
70.2887242957
 31
0.0
  0
ARC
  5
36D
330
1F
100
AcDbEntity
  8
0
  6
Continuous
 62
     7
370
    25
100
AcDbCircle
 10
72.4715085888
 20
70.0765922613
 30
0.0
 40
0.2999999999999944
100
AcDbArc
 50
45.0
 51
135.0
  0
LINE
  5
36E
330
1F
100
AcDbEntity
  8
0
  6
Continuous
 62
     7
370
    25
100
AcDbLine
 10
72.2593765544
 20
70.2887242957
 30
0.0
 11
71.5109058125
 21
69.5402535537
 31
0.0
  0
ARC
  5
36F
330
1F
100
AcDbEntity
  8
0
  6
Continuous
 62
     7
370
    25
100
AcDbCircle
 10
67.5
 20
67.5
 30
0.0
 40
4.500000000000029
100
AcDbArc
 50
333.0386289048
 51
26.9613710952
  0
LINE
  5
370
330
1F
100
AcDbEntity
  8
0
  6
Continuous
 62
     7
370
    25
100
AcDbLine
 10
71.5109058125
 20
65.4597464463
 30
0.0
 11
72.2593765544
 21
64.7112757043
 31
0.0
  0
ARC
  5
371
330
1F
100
AcDbEntity
  8
0
  6
Continuous
 62
     7
370
    25
100
AcDbCircle
 10
72.4715085888
 20
64.9234077387
 30
0.0
 40
0.3000000000000145
100
AcDbArc
 50
225.0
 51
315.0
  0
LINE
  5
372
330
1F
100
AcDbEntity
  8
0
  6
Continuous
 62
     7
370
    25
100
AcDbLine
 10
72.6836406232
 20
64.7112757043
 30
0.0
 11
73.0525593113
 21
65.0801943924
 31
0.0
  0
ARC
  5
373
330
1F
100
AcDbEntity
  8
0
  6
Continuous
 62
     7
370
    25
100
AcDbCircle
 10
73.2646913456
 20
64.8680623581
 30
0.0
 40
0.2999999999999972
100
AcDbArc
 50
0.0
 51
135.0
  0
LINE
  5
374
330
1F
100
AcDbEntity
  8
0
  6
Continuous
 62
     7
370
    25
100
AcDbLine
 10
73.5646913456
 20
64.8680623581
 30
0.0
 11
73.5646913456
 21
62.512974733
 31
0.0
  0
LINE
  5
375
330
1F
100
AcDbEntity
  8
0
  6
Continuous
 62
     7
370
    25
100
AcDbLine
 10
73.5646913456
 20
62.512974733
 30
0.0
 11
72.487025267
 21
61.4353086544
 31
0.0
  0
LINE
  5
376
330
1F
100
AcDbEntity
  8
0
  6
Continuous
 62
     7
370
    25
100
AcDbLine
 10
72.487025267
 20
61.4353086544
 30
0.0
 11
70.1319376419
 21
61.4353086544
 31
0.0
  0
ARC
  5
377
330
1F
100
AcDbEntity
  8
0
  6
Continuous
 62
     7
370
    25
100
AcDbCircle
 10
70.1319376419
 20
61.7353086544
 30
0.0
 40
0.2999999999999994
100
AcDbArc
 50
135.0
 51
270.0
  0
LINE
  5
378
330
1F
100
AcDbEntity
  8
0
  6
Continuous
 62
     7
370
    25
100
AcDbLine
 10
69.9198056076
 20
61.9474406887
 30
0.0
 11
70.2887242957
 21
62.3163593768
 31
0.0
  0
ARC
  5
379
330
1F
100
AcDbEntity
  8
0
  6
Continuous
 62
     7
370
    25
100
AcDbCircle
 10
70.0765922613
 20
62.5284914112
 30
0.0
 40
0.2999999999999893
100
AcDbArc
 50
315.0
 51
45.0
  0
LINE
  5
37A
330
1F
100
AcDbEntity
  8
0
  6
Continuous
 62
     7
370
    25
100
AcDbLine
 10
70.2887242957
 20
62.7406234456
 30
0.0
 11
69.5402535537
 21
63.4890941875
 31
0.0
  0
ARC
  5
37B
330
1F
100
AcDbEntity
  8
0
  6
Continuous
 62
     7
370
    25
100
AcDbCircle
 10
67.5
 20
67.5
 30
0.0
 40
4.50000000000001
100
AcDbArc
 50
243.0386289048
 51
296.9613710952
  0
LINE
  5
37C
330
1F
100
AcDbEntity
  8
0
  6
Continuous
 62
     7
370
    25
100
AcDbLine
 10
65.4597464463
 20
63.4890941875
 30
0.0
 11
64.7112757043
 21
62.7406234456
 31
0.0
  0
ARC
  5
37D
330
1F
100
AcDbEntity
  8
0
  6
Continuous
 62
     7
370
    25
100
AcDbCircle
 10
64.9234077387
 20
62.5284914112
 30
0.0
 40
0.3000000000000095
100
AcDbArc
 50
135.0
 51
225.0
  0
LINE
  5
37E
330
1F
100
AcDbEntity
  8
0
  6
Continuous
 62
     7
370
    25
100
AcDbLine
 10
64.7112757043
 20
62.3163593768
 30
0.0
 11
65.0801943924
 21
61.9474406887
 31
0.0
  0
ARC
  5
37F
330
1F
100
AcDbEntity
  8
0
  6
Continuous
 62
     7
370
    25
100
AcDbCircle
 10
64.8680623581
 20
61.7353086544
 30
0.0
 40
0.3000000000000044
100
AcDbArc
 50
270.0
 51
45.0
  0
LINE
  5
380
330
1F
100
AcDbEntity
  8
0
  6
Continuous
 62
     7
370
    25
100
AcDbLine
 10
64.8680623581
 20
61.4353086544
 30
0.0
 11
62.512974733
 21
61.4353086544
 31
0.0
  0
LINE
  5
381
330
1F
100
AcDbEntity
  8
0
  6
Continuous
 62
     7
370
    25
100
AcDbLine
 10
62.512974733
 20
61.4353086544
 30
0.0
 11
61.4353086544
 21
62.512974733
 31
0.0
  0
LINE
  5
382
330
1F
100
AcDbEntity
  8
0
  6
Continuous
 62
     7
370
    25
100
AcDbLine
 10
61.4353086544
 20
62.512974733
 30
0.0
 11
61.4353086544
 21
64.8680623581
 31
0.0
  0
ARC
  5
383
330
1F
100
AcDbEntity
  8
0
  6
Continuous
 62
     7
370
    25
100
AcDbCircle
 10
61.7353086544
 20
64.8680623581
 30
0.0
 40
0.3000000000000043
100
AcDbArc
 50
45.0
 51
180.0
  0
LINE
  5
384
330
1F
100
AcDbEntity
  8
0
  6
Continuous
 62
     7
370
    25
100
AcDbLine
 10
61.9474406887
 20
65.0801943924
 30
0.0
 11
62.3163593768
 21
64.7112757043
 31
0.0
  0
ARC
  5
385
330
1F
100
AcDbEntity
  8
0
  6
Continuous
 62
     7
370
    25
100
AcDbCircle
 10
62.5284914112
 20
64.9234077387
 30
0.0
 40
0.3000000000000044
100
AcDbArc
 50
225.0
 51
315.0
  0
LINE
  5
386
330
1F
100
AcDbEntity
  8
0
  6
Continuous
 62
     7
370
    25
100
AcDbLine
 10
62.7406234456
 20
64.7112757043
 30
0.0
 11
63.4890941875
 21
65.4597464463
 31
0.0
  0
ARC
  5
387
330
1F
100
AcDbEntity
  8
0
  6
Continuous
 62
     7
370
    25
100
AcDbCircle
 10
67.5
 20
67.5
 30
0.0
 40
4.49999999999999
100
AcDbArc
 50
153.0386289048
 51
206.9613710952
  0
LINE
  5
388
330
1F
100
AcDbEntity
  8
0
  6
Continuous
 62
     7
370
    25
100
AcDbLine
 10
63.4890941875
 20
69.5402535537
 30
0.0
 11
62.7406234456
 21
70.2887242957
 31
0.0
  0
ARC
  5
389
330
1F
100
AcDbEntity
  8
0
  6
Continuous
 62
     7
370
    25
100
AcDbCircle
 10
62.5284914112
 20
70.0765922613
 30
0.0
 40
0.3000000000000095
100
AcDbArc
 50
45.0
 51
135.0
  0
LINE
  5
38A
330
1F
100
AcDbEntity
  8
0
  6
Continuous
 62
     7
370
    25
100
AcDbLine
 10
62.3163593768
 20
70.2887242957
 30
0.0
 11
61.9474406887
 21
69.9198056076
 31
0.0
  0
ARC
  5
38B
330
1F
100
AcDbEntity
  8
0
  6
Continuous
 62
     7
370
    25
100
AcDbCircle
 10
61.7353086544
 20
70.1319376419
 30
0.0
 40
0.2999999999999901
100
AcDbArc
 50
180.0
 51
315.0
  0
LINE
  5
38C
330
1F
100
AcDbEntity
  8
0
  6
Continuous
 62
     7
370
    25
100
AcDbLine
 10
61.4353086544
 20
70.1319376419
 30
0.0
 11
61.4353086544
 21
72.487025267
 31
0.0
  0
LINE
  5
38D
330
1F
100
AcDbEntity
  8
0
  6
Continuous
 62
     7
370
    25
100
AcDbLine
 10
61.4353086544
 20
72.487025267
 30
0.0
 11
62.512974733
 21
73.5646913456
 31
0.0
  0
LINE
  5
38E
330
1F
100
AcDbEntity
  8
0
  6
Continuous
 62
     7
370
    25
100
AcDbLine
 10
62.512974733
 20
73.5646913456
 30
0.0
 11
64.8680623581
 21
73.5646913456
 31
0.0
  0
ARC
  5
38F
330
1F
100
AcDbEntity
  8
0
  6
Continuous
 62
     7
370
    25
100
AcDbCircle
 10
64.8680623581
 20
73.2646913456
 30
0.0
 40
0.3000000000000145
100
AcDbArc
 50
315.0
 51
90.0
  0
LINE
  5
390
330
1F
100
AcDbEntity
  8
0
  6
Continuous
 62
     7
370
    25
100
AcDbLine
 10
65.0801943924
 20
73.0525593113
 30
0.0
 11
64.7112757043
 21
72.6836406232
 31
0.0
  0
ARC
  5
391
330
1F
100
AcDbEntity
  8
0
  6
Continuous
 62
     7
370
    25
100
AcDbCircle
 10
64.9234077387
 20
72.4715085888
 30
0.0
 40
0.3000000000000145
100
AcDbArc
 50
135.0
 51
225.0
  0
LINE
  5
392
330
1F
100
AcDbEntity
  8
0
  6
Continuous
 62
     7
370
    25
100
AcDbLine
 10
64.7112757043
 20
72.2593765544
 30
0.0
 11
65.4597464463
 21
71.5109058125
 31
0.0
  0
ARC
  5
393
330
1F
100
AcDbEntity
  8
0
  6
Continuous
 62
     7
370
    25
100
AcDbCircle
 10
6.0
 20
84.0
 30
0.0
 40
3.550000000000009
100
AcDbArc
 50
241.361103524
 51
298.638896476
  0
LINE
  5
394
330
1F
100
AcDbEntity
  8
0
  6
Continuous
 62
     7
370
    25
100
AcDbLine
 10
4.2985283623
 20
80.8843147999
 30
0.0
 11
3.7515849944
 21
80.337371432
 31
0.0
  0
ARC
  5
395
330
1F
100
AcDbEntity
  8
0
  6
Continuous
 62
     7
370
    25
100
AcDbCircle
 10
3.0444782132
 20
81.0444782132
 30
0.0
 40
0.9999999999999961
100
AcDbArc
 50
135.0
 51
315.0
  0
LINE
  5
396
330
1F
100
AcDbEntity
  8
0
  6
Continuous
 62
     7
370
    25
100
AcDbLine
 10
2.337371432
 20
81.7515849944
 30
0.0
 11
2.8843147999
 21
82.2985283623
 31
0.0
  0
ARC
  5
397
330
1F
100
AcDbEntity
  8
0
  6
Continuous
 62
     7
370
    25
100
AcDbCircle
 10
6.0
 20
84.0
 30
0.0
 40
3.550000000000012
100
AcDbArc
 50
151.361103524
 51
208.638896476
  0
LINE
  5
398
330
1F
100
AcDbEntity
  8
0
  6
Continuous
 62
     7
370
    25
100
AcDbLine
 10
2.8843147999
 20
85.7014716377
 30
0.0
 11
2.337371432
 21
86.2484150056
 31
0.0
  0
ARC
  5
399
330
1F
100
AcDbEntity
  8
0
  6
Continuous
 62
     7
370
    25
100
AcDbCircle
 10
3.0444782132
 20
86.9555217868
 30
0.0
 40
0.9999999999999851
100
AcDbArc
 50
45.0
 51
225.0
  0
LINE
  5
39A
330
1F
100
AcDbEntity
  8
0
  6
Continuous
 62
     7
370
    25
100
AcDbLine
 10
3.7515849944
 20
87.662628568
 30
0.0
 11
4.2985283623
 21
87.1156852001
 31
0.0
  0
ARC
  5
39B
330
1F
100
AcDbEntity
  8
0
  6
Continuous
 62
     7
370
    25
100
AcDbCircle
 10
6.0
 20
84.0
 30
0.0
 40
3.550000000000019
100
AcDbArc
 50
61.361103524
 51
118.638896476
  0
LINE
  5
39C
330
1F
100
AcDbEntity
  8
0
  6
Continuous
 62
     7
370
    25
100
AcDbLine
 10
7.7014716377
 20
87.1156852001
 30
0.0
 11
8.2484150056
 21
87.662628568
 31
0.0
  0
ARC
  5
39D
330
1F
100
AcDbEntity
  8
0
  6
Continuous
 62
     7
370
    25
100
AcDbCircle
 10
8.9555217868
 20
86.9555217868
 30
0.0
 40
1.000000000000008
100
AcDbArc
 50
315.0
 51
135.0
  0
LINE
  5
39E
330
1F
100
AcDbEntity
  8
0
  6
Continuous
 62
     7
370
    25
100
AcDbLine
 10
9.662628568
 20
86.2484150056
 30
0.0
 11
9.1156852001
 21
85.7014716377
 31
0.0
  0
ARC
  5
39F
330
1F
100
AcDbEntity
  8
0
  6
Continuous
 62
     7
370
    25
100
AcDbCircle
 10
6.0
 20
84.0
 30
0.0
 40
3.55000000000001
100
AcDbArc
 50
331.361103524
 51
28.638896476
  0
LINE
  5
3A0
330
1F
100
AcDbEntity
  8
0
  6
Continuous
 62
     7
370
    25
100
AcDbLine
 10
9.1156852001
 20
82.2985283623
 30
0.0
 11
9.662628568
 21
81.7515849944
 31
0.0
  0
ARC
  5
3A1
330
1F
100
AcDbEntity
  8
0
  6
Continuous
 62
     7
370
    25
100
AcDbCircle
 10
8.9555217868
 20
81.0444782132
 30
0.0
 40
0.9999999999999954
100
AcDbArc
 50
225.0
 51
45.0
  0
LINE
  5
3A2
330
1F
100
AcDbEntity
  8
0
  6
Continuous
 62
     7
370
    25
100
AcDbLine
 10
8.2484150056
 20
80.337371432
 30
0.0
 11
7.7014716377
 21
80.8843147999
 31
0.0
  0
LINE
  5
3A3
330
1F
100
AcDbEntity
  8
0
  6
Continuous
 62
     7
370
    25
100
AcDbLine
 10
28.5646913456
 20
64.8680623581
 30
0.0
 11
28.5646913456
 21
62.512974733
 31
0.0
  0
LINE
  5
3A4
330
1F
100
AcDbEntity
  8
0
  6
Continuous
 62
     7
370
    25
100
AcDbLine
 10
28.5646913456
 20
62.512974733
 30
0.0
 11
27.487025267
 21
61.4353086544
 31
0.0
  0
LINE
  5
3A5
330
1F
100
AcDbEntity
  8
0
  6
Continuous
 62
     7
370
    25
100
AcDbLine
 10
27.487025267
 20
61.4353086544
 30
0.0
 11
25.1319376419
 21
61.4353086544
 31
0.0
  0
ARC
  5
3A6
330
1F
100
AcDbEntity
  8
0
  6
Continuous
 62
     7
370
    25
100
AcDbCircle
 10
25.1319376419
 20
61.7353086544
 30
0.0
 40
0.3000000000000043
100
AcDbArc
 50
135.0
 51
270.0
  0
LINE
  5
3A7
330
1F
100
AcDbEntity
  8
0
  6
Continuous
 62
     7
370
    25
100
AcDbLine
 10
24.9198056076
 20
61.9474406887
 30
0.0
 11
25.2887242957
 21
62.3163593768
 31
0.0
  0
ARC
  5
3A8
330
1F
100
AcDbEntity
  8
0
  6
Continuous
 62
     7
370
    25
100
AcDbCircle
 10
25.0765922613
 20
62.5284914112
 30
0.0
 40
0.3000000000000044
100
AcDbArc
 50
315.0
 51
45.0
  0
LINE
  5
3A9
330
1F
100
AcDbEntity
  8
0
  6
Continuous
 62
     7
370
    25
100
AcDbLine
 10
25.2887242957
 20
62.7406234456
 30
0.0
 11
24.5402535537
 21
63.4890941875
 31
0.0
  0
ARC
  5
3AA
330
1F
100
AcDbEntity
  8
0
  6
Continuous
 62
     7
370
    25
100
AcDbCircle
 10
22.5
 20
67.5
 30
0.0
 40
4.500000000000014
100
AcDbArc
 50
243.0386289048
 51
296.9613710952
  0
LINE
  5
3AB
330
1F
100
AcDbEntity
  8
0
  6
Continuous
 62
     7
370
    25
100
AcDbLine
 10
20.4597464463
 20
63.4890941875
 30
0.0
 11
19.7112757043
 21
62.7406234456
 31
0.0
  0
ARC
  5
3AC
330
1F
100
AcDbEntity
  8
0
  6
Continuous
 62
     7
370
    25
100
AcDbCircle
 10
19.9234077387
 20
62.5284914112
 30
0.0
 40
0.3000000000000019
100
AcDbArc
 50
135.0
 51
225.0
  0
LINE
  5
3AD
330
1F
100
AcDbEntity
  8
0
  6
Continuous
 62
     7
370
    25
100
AcDbLine
 10
19.7112757043
 20
62.3163593768
 30
0.0
 11
20.0801943924
 21
61.9474406887
 31
0.0
  0
ARC
  5
3AE
330
1F
100
AcDbEntity
  8
0
  6
Continuous
 62
     7
370
    25
100
AcDbCircle
 10
19.8680623581
 20
61.7353086544
 30
0.0
 40
0.2999999999999972
100
AcDbArc
 50
270.0
 51
45.0
  0
LINE
  5
3AF
330
1F
100
AcDbEntity
  8
0
  6
Continuous
 62
     7
370
    25
100
AcDbLine
 10
19.8680623581
 20
61.4353086544
 30
0.0
 11
17.512974733
 21
61.4353086544
 31
0.0
  0
LINE
  5
3B0
330
1F
100
AcDbEntity
  8
0
  6
Continuous
 62
     7
370
    25
100
AcDbLine
 10
17.512974733
 20
61.4353086544
 30
0.0
 11
16.4353086544
 21
62.512974733
 31
0.0
  0
LINE
  5
3B1
330
1F
100
AcDbEntity
  8
0
  6
Continuous
 62
     7
370
    25
100
AcDbLine
 10
16.4353086544
 20
62.512974733
 30
0.0
 11
16.4353086544
 21
64.8680623581
 31
0.0
  0
ARC
  5
3B2
330
1F
100
AcDbEntity
  8
0
  6
Continuous
 62
     7
370
    25
100
AcDbCircle
 10
16.7353086544
 20
64.8680623581
 30
0.0
 40
0.3000000000000043
100
AcDbArc
 50
45.0
 51
180.0
  0
LINE
  5
3B3
330
1F
100
AcDbEntity
  8
0
  6
Continuous
 62
     7
370
    25
100
AcDbLine
 10
16.9474406887
 20
65.0801943924
 30
0.0
 11
17.3163593768
 21
64.7112757043
 31
0.0
  0
ARC
  5
3B4
330
1F
100
AcDbEntity
  8
0
  6
Continuous
 62
     7
370
    25
100
AcDbCircle
 10
17.5284914112
 20
64.9234077387
 30
0.0
 40
0.3000000000000044
100
AcDbArc
 50
225.0
 51
315.0
  0
LINE
  5
3B5
330
1F
100
AcDbEntity
  8
0
  6
Continuous
 62
     7
370
    25
100
AcDbLine
 10
17.7406234456
 20
64.7112757043
 30
0.0
 11
18.4890941875
 21
65.4597464463
 31
0.0
  0
ARC
  5
3B6
330
1F
100
AcDbEntity
  8
0
  6
Continuous
 62
     7
370
    25
100
AcDbCircle
 10
22.5
 20
67.5
 30
0.0
 40
4.500000000000016
100
AcDbArc
 50
153.0386289048
 51
206.9613710952
  0
LINE
  5
3B7
330
1F
100
AcDbEntity
  8
0
  6
Continuous
 62
     7
370
    25
100
AcDbLine
 10
18.4890941875
 20
69.5402535537
 30
0.0
 11
17.7406234456
 21
70.2887242957
 31
0.0
  0
ARC
  5
3B8
330
1F
100
AcDbEntity
  8
0
  6
Continuous
 62
     7
370
    25
100
AcDbCircle
 10
17.5284914112
 20
70.0765922613
 30
0.0
 40
0.3000000000000019
100
AcDbArc
 50
45.0
 51
135.0
  0
LINE
  5
3B9
330
1F
100
AcDbEntity
  8
0
  6
Continuous
 62
     7
370
    25
100
AcDbLine
 10
17.3163593768
 20
70.2887242957
 30
0.0
 11
16.9474406887
 21
69.9198056076
 31
0.0
  0
ARC
  5
3BA
330
1F
100
AcDbEntity
  8
0
  6
Continuous
 62
     7
370
    25
100
AcDbCircle
 10
16.7353086544
 20
70.1319376419
 30
0.0
 40
0.3000000000000095
100
AcDbArc
 50
180.0
 51
315.0
  0
LINE
  5
3BB
330
1F
100
AcDbEntity
  8
0
  6
Continuous
 62
     7
370
    25
100
AcDbLine
 10
16.4353086544
 20
70.1319376419
 30
0.0
 11
16.4353086544
 21
72.487025267
 31
0.0
  0
LINE
  5
3BC
330
1F
100
AcDbEntity
  8
0
  6
Continuous
 62
     7
370
    25
100
AcDbLine
 10
16.4353086544
 20
72.487025267
 30
0.0
 11
17.512974733
 21
73.5646913456
 31
0.0
  0
LINE
  5
3BD
330
1F
100
AcDbEntity
  8
0
  6
Continuous
 62
     7
370
    25
100
AcDbLine
 10
17.512974733
 20
73.5646913456
 30
0.0
 11
19.8680623581
 21
73.5646913456
 31
0.0
  0
ARC
  5
3BE
330
1F
100
AcDbEntity
  8
0
  6
Continuous
 62
     7
370
    25
100
AcDbCircle
 10
19.8680623581
 20
73.2646913456
 30
0.0
 40
0.3000000000000114
100
AcDbArc
 50
315.0
 51
90.0
  0
LINE
  5
3BF
330
1F
100
AcDbEntity
  8
0
  6
Continuous
 62
     7
370
    25
100
AcDbLine
 10
20.0801943924
 20
73.0525593113
 30
0.0
 11
19.7112757043
 21
72.6836406232
 31
0.0
  0
ARC
  5
3C0
330
1F
100
AcDbEntity
  8
0
  6
Continuous
 62
     7
370
    25
100
AcDbCircle
 10
19.9234077387
 20
72.4715085888
 30
0.0
 40
0.300000000000012
100
AcDbArc
 50
135.0
 51
225.0
  0
LINE
  5
3C1
330
1F
100
AcDbEntity
  8
0
  6
Continuous
 62
     7
370
    25
100
AcDbLine
 10
19.7112757043
 20
72.2593765544
 30
0.0
 11
20.4597464463
 21
71.5109058125
 31
0.0
  0
ARC
  5
3C2
330
1F
100
AcDbEntity
  8
0
  6
Continuous
 62
     7
370
    25
100
AcDbCircle
 10
22.5
 20
67.5
 30
0.0
 40
4.499999999999994
100
AcDbArc
 50
63.0386289048
 51
116.9613710952
  0
LINE
  5
3C3
330
1F
100
AcDbEntity
  8
0
  6
Continuous
 62
     7
370
    25
100
AcDbLine
 10
24.5402535537
 20
71.5109058125
 30
0.0
 11
25.2887242957
 21
72.2593765544
 31
0.0
  0
ARC
  5
3C4
330
1F
100
AcDbEntity
  8
0
  6
Continuous
 62
     7
370
    25
100
AcDbCircle
 10
25.0765922613
 20
72.4715085888
 30
0.0
 40
0.2999999999999969
100
AcDbArc
 50
315.0
 51
45.0
  0
LINE
  5
3C5
330
1F
100
AcDbEntity
  8
0
  6
Continuous
 62
     7
370
    25
100
AcDbLine
 10
25.2887242957
 20
72.6836406232
 30
0.0
 11
24.9198056076
 21
73.0525593113
 31
0.0
  0
ARC
  5
3C6
330
1F
100
AcDbEntity
  8
0
  6
Continuous
 62
     7
370
    25
100
AcDbCircle
 10
25.1319376419
 20
73.2646913456
 30
0.0
 40
0.2999999999999972
100
AcDbArc
 50
90.0
 51
225.0
  0
LINE
  5
3C7
330
1F
100
AcDbEntity
  8
0
  6
Continuous
 62
     7
370
    25
100
AcDbLine
 10
25.1319376419
 20
73.5646913456
 30
0.0
 11
27.487025267
 21
73.5646913456
 31
0.0
  0
LINE
  5
3C8
330
1F
100
AcDbEntity
  8
0
  6
Continuous
 62
     7
370
    25
100
AcDbLine
 10
27.487025267
 20
73.5646913456
 30
0.0
 11
28.5646913456
 21
72.487025267
 31
0.0
  0
LINE
  5
3C9
330
1F
100
AcDbEntity
  8
0
  6
Continuous
 62
     7
370
    25
100
AcDbLine
 10
28.5646913456
 20
72.487025267
 30
0.0
 11
28.5646913456
 21
70.1319376419
 31
0.0
  0
ARC
  5
3CA
330
1F
100
AcDbEntity
  8
0
  6
Continuous
 62
     7
370
    25
100
AcDbCircle
 10
28.2646913456
 20
70.1319376419
 30
0.0
 40
0.300000000000012
100
AcDbArc
 50
225.0
 51
0.0
  0
LINE
  5
3CB
330
1F
100
AcDbEntity
  8
0
  6
Continuous
 62
     7
370
    25
100
AcDbLine
 10
28.0525593113
 20
69.9198056076
 30
0.0
 11
27.6836406232
 21
70.2887242957
 31
0.0
  0
ARC
  5
3CC
330
1F
100
AcDbEntity
  8
0
  6
Continuous
 62
     7
370
    25
100
AcDbCircle
 10
27.4715085888
 20
70.0765922613
 30
0.0
 40
0.3000000000000195
100
AcDbArc
 50
45.0
 51
135.0
  0
LINE
  5
3CD
330
1F
100
AcDbEntity
  8
0
  6
Continuous
 62
     7
370
    25
100
AcDbLine
 10
27.2593765544
 20
70.2887242957
 30
0.0
 11
26.5109058125
 21
69.5402535537
 31
0.0
  0
ARC
  5
3CE
330
1F
100
AcDbEntity
  8
0
  6
Continuous
 62
     7
370
    25
100
AcDbCircle
 10
22.5
 20
67.5
 30
0.0
 40
4.499999999999979
100
AcDbArc
 50
333.0386289048
 51
26.9613710952
  0
LINE
  5
3CF
330
1F
100
AcDbEntity
  8
0
  6
Continuous
 62
     7
370
    25
100
AcDbLine
 10
26.5109058125
 20
65.4597464463
 30
0.0
 11
27.2593765544
 21
64.7112757043
 31
0.0
  0
ARC
  5
3D0
330
1F
100
AcDbEntity
  8
0
  6
Continuous
 62
     7
370
    25
100
AcDbCircle
 10
27.4715085888
 20
64.9234077387
 30
0.0
 40
0.2999999999999969
100
AcDbArc
 50
225.0
 51
315.0
  0
LINE
  5
3D1
330
1F
100
AcDbEntity
  8
0
  6
Continuous
 62
     7
370
    25
100
AcDbLine
 10
27.6836406232
 20
64.7112757043
 30
0.0
 11
28.0525593113
 21
65.0801943924
 31
0.0
  0
ARC
  5
3D2
330
1F
100
AcDbEntity
  8
0
  6
Continuous
 62
     7
370
    25
100
AcDbCircle
 10
28.2646913456
 20
64.8680623581
 30
0.0
 40
0.2999999999999994
100
AcDbArc
 50
0.0
 51
135.0
  0
ARC
  5
3D3
330
1F
100
AcDbEntity
  8
0
  6
Continuous
 62
     7
370
    25
100
AcDbCircle
 10
112.5
 20
67.5
 30
0.0
 40
4.500000000000004
100
AcDbArc
 50
63.0386289048
 51
116.9613710952
  0
LINE
  5
3D4
330
1F
100
AcDbEntity
  8
0
  6
Continuous
 62
     7
370
    25
100
AcDbLine
 10
115.2887242957
 20
72.2593765544
 30
0.0
 11
114.5402535537
 21
71.5109058125
 31
0.0
  0
ARC
  5
3D5
330
1F
100
AcDbEntity
  8
0
  6
Continuous
 62
     7
370
    25
100
AcDbCircle
 10
115.0765922613
 20
72.4715085888
 30
0.0
 40
0.3000000000000145
100
AcDbArc
 50
315.0
 51
45.0
  0
LINE
  5
3D6
330
1F
100
AcDbEntity
  8
0
  6
Continuous
 62
     7
370
    25
100
AcDbLine
 10
114.9198056076
 20
73.0525593113
 30
0.0
 11
115.2887242957
 21
72.6836406232
 31
0.0
  0
ARC
  5
3D7
330
1F
100
AcDbEntity
  8
0
  6
Continuous
 62
     7
370
    25
100
AcDbCircle
 10
115.1319376419
 20
73.2646913456
 30
0.0
 40
0.3000000000000256
100
AcDbArc
 50
90.0
 51
225.0
  0
LINE
  5
3D8
330
1F
100
AcDbEntity
  8
0
  6
Continuous
 62
     7
370
    25
100
AcDbLine
 10
117.487025267
 20
73.5646913456
 30
0.0
 11
115.1319376419
 21
73.5646913456
 31
0.0
  0
LINE
  5
3D9
330
1F
100
AcDbEntity
  8
0
  6
Continuous
 62
     7
370
    25
100
AcDbLine
 10
118.5646913456
 20
72.487025267
 30
0.0
 11
117.487025267
 21
73.5646913456
 31
0.0
  0
LINE
  5
3DA
330
1F
100
AcDbEntity
  8
0
  6
Continuous
 62
     7
370
    25
100
AcDbLine
 10
118.5646913456
 20
70.1319376419
 30
0.0
 11
118.5646913456
 21
72.487025267
 31
0.0
  0
ARC
  5
3DB
330
1F
100
AcDbEntity
  8
0
  6
Continuous
 62
     7
370
    25
100
AcDbCircle
 10
118.2646913456
 20
70.1319376419
 30
0.0
 40
0.2999999999999972
100
AcDbArc
 50
225.0
 51
0.0
  0
LINE
  5
3DC
330
1F
100
AcDbEntity
  8
0
  6
Continuous
 62
     7
370
    25
100
AcDbLine
 10
117.6836406232
 20
70.2887242957
 30
0.0
 11
118.0525593113
 21
69.9198056076
 31
0.0
  0
ARC
  5
3DD
330
1F
100
AcDbEntity
  8
0
  6
Continuous
 62
     7
370
    25
100
AcDbCircle
 10
117.4715085888
 20
70.0765922613
 30
0.0
 40
0.3000000000000044
100
AcDbArc
 50
45.0
 51
135.0
  0
LINE
  5
3DE
330
1F
100
AcDbEntity
  8
0
  6
Continuous
 62
     7
370
    25
100
AcDbLine
 10
116.5109058125
 20
69.5402535537
 30
0.0
 11
117.2593765544
 21
70.2887242957
 31
0.0
  0
ARC
  5
3DF
330
1F
100
AcDbEntity
  8
0
  6
Continuous
 62
     7
370
    25
100
AcDbCircle
 10
112.5
 20
67.5
 30
0.0
 40
4.499999999999991
100
AcDbArc
 50
333.0386289048
 51
26.9613710952
  0
LINE
  5
3E0
330
1F
100
AcDbEntity
  8
0
  6
Continuous
 62
     7
370
    25
100
AcDbLine
 10
117.2593765544
 20
64.7112757043
 30
0.0
 11
116.5109058125
 21
65.4597464463
 31
0.0
  0
ARC
  5
3E1
330
1F
100
AcDbEntity
  8
0
  6
Continuous
 62
     7
370
    25
100
AcDbCircle
 10
117.4715085888
 20
64.9234077387
 30
0.0
 40
0.3000000000000044
100
AcDbArc
 50
225.0
 51
315.0
  0
LINE
  5
3E2
330
1F
100
AcDbEntity
  8
0
  6
Continuous
 62
     7
370
    25
100
AcDbLine
 10
118.0525593113
 20
65.0801943924
 30
0.0
 11
117.6836406232
 21
64.7112757043
 31
0.0
  0
ARC
  5
3E3
330
1F
100
AcDbEntity
  8
0
  6
Continuous
 62
     7
370
    25
100
AcDbCircle
 10
118.2646913456
 20
64.8680623581
 30
0.0
 40
0.3000000000000114
100
AcDbArc
 50
0.0
 51
135.0
  0
LINE
  5
3E4
330
1F
100
AcDbEntity
  8
0
  6
Continuous
 62
     7
370
    25
100
AcDbLine
 10
118.5646913456
 20
62.512974733
 30
0.0
 11
118.5646913456
 21
64.8680623581
 31
0.0
  0
LINE
  5
3E5
330
1F
100
AcDbEntity
  8
0
  6
Continuous
 62
     7
370
    25
100
AcDbLine
 10
117.487025267
 20
61.4353086544
 30
0.0
 11
118.5646913456
 21
62.512974733
 31
0.0
  0
LINE
  5
3E6
330
1F
100
AcDbEntity
  8
0
  6
Continuous
 62
     7
370
    25
100
AcDbLine
 10
115.1319376419
 20
61.4353086544
 30
0.0
 11
117.487025267
 21
61.4353086544
 31
0.0
  0
ARC
  5
3E7
330
1F
100
AcDbEntity
  8
0
  6
Continuous
 62
     7
370
    25
100
AcDbCircle
 10
115.1319376419
 20
61.7353086544
 30
0.0
 40
0.3000000000000044
100
AcDbArc
 50
135.0
 51
270.0
  0
LINE
  5
3E8
330
1F
100
AcDbEntity
  8
0
  6
Continuous
 62
     7
370
    25
100
AcDbLine
 10
115.2887242957
 20
62.3163593768
 30
0.0
 11
114.9198056076
 21
61.9474406887
 31
0.0
  0
ARC
  5
3E9
330
1F
100
AcDbEntity
  8
0
  6
Continuous
 62
     7
370
    25
100
AcDbCircle
 10
115.0765922613
 20
62.5284914112
 30
0.0
 40
0.3000000000000095
100
AcDbArc
 50
315.0
 51
45.0
  0
LINE
  5
3EA
330
1F
100
AcDbEntity
  8
0
  6
Continuous
 62
     7
370
    25
100
AcDbLine
 10
114.5402535537
 20
63.4890941875
 30
0.0
 11
115.2887242957
 21
62.7406234456
 31
0.0
  0
ARC
  5
3EB
330
1F
100
AcDbEntity
  8
0
  6
Continuous
 62
     7
370
    25
100
AcDbCircle
 10
112.5
 20
67.5
 30
0.0
 40
4.50000000000001
100
AcDbArc
 50
243.0386289048
 51
296.9613710952
  0
LINE
  5
3EC
330
1F
100
AcDbEntity
  8
0
  6
Continuous
 62
     7
370
    25
100
AcDbLine
 10
109.7112757043
 20
62.7406234456
 30
0.0
 11
110.4597464463
 21
63.4890941875
 31
0.0
  0
ARC
  5
3ED
330
1F
100
AcDbEntity
  8
0
  6
Continuous
 62
     7
370
    25
100
AcDbCircle
 10
109.9234077387
 20
62.5284914112
 30
0.0
 40
0.2999999999999994
100
AcDbArc
 50
135.0
 51
225.0
  0
LINE
  5
3EE
330
1F
100
AcDbEntity
  8
0
  6
Continuous
 62
     7
370
    25
100
AcDbLine
 10
110.0801943924
 20
61.9474406887
 30
0.0
 11
109.7112757043
 21
62.3163593768
 31
0.0
  0
ARC
  5
3EF
330
1F
100
AcDbEntity
  8
0
  6
Continuous
 62
     7
370
    25
100
AcDbCircle
 10
109.8680623581
 20
61.7353086544
 30
0.0
 40
0.3000000000000043
100
AcDbArc
 50
270.0
 51
45.0
  0
LINE
  5
3F0
330
1F
100
AcDbEntity
  8
0
  6
Continuous
 62
     7
370
    25
100
AcDbLine
 10
107.512974733
 20
61.4353086544
 30
0.0
 11
109.8680623581
 21
61.4353086544
 31
0.0
  0
LINE
  5
3F1
330
1F
100
AcDbEntity
  8
0
  6
Continuous
 62
     7
370
    25
100
AcDbLine
 10
106.4353086544
 20
62.512974733
 30
0.0
 11
107.512974733
 21
61.4353086544
 31
0.0
  0
LINE
  5
3F2
330
1F
100
AcDbEntity
  8
0
  6
Continuous
 62
     7
370
    25
100
AcDbLine
 10
106.4353086544
 20
64.8680623581
 30
0.0
 11
106.4353086544
 21
62.512974733
 31
0.0
  0
ARC
  5
3F3
330
1F
100
AcDbEntity
  8
0
  6
Continuous
 62
     7
370
    25
100
AcDbCircle
 10
106.7353086544
 20
64.8680623581
 30
0.0
 40
0.2999999999999972
100
AcDbArc
 50
45.0
 51
180.0
  0
LINE
  5
3F4
330
1F
100
AcDbEntity
  8
0
  6
Continuous
 62
     7
370
    25
100
AcDbLine
 10
107.3163593768
 20
64.7112757043
 30
0.0
 11
106.9474406887
 21
65.0801943924
 31
0.0
  0
ARC
  5
3F5
330
1F
100
AcDbEntity
  8
0
  6
Continuous
 62
     7
370
    25
100
AcDbCircle
 10
107.5284914112
 20
64.9234077387
 30
0.0
 40
0.3000000000000245
100
AcDbArc
 50
225.0
 51
315.0
  0
LINE
  5
3F6
330
1F
100
AcDbEntity
  8
0
  6
Continuous
 62
     7
370
    25
100
AcDbLine
 10
108.4890941875
 20
65.4597464463
 30
0.0
 11
107.7406234456
 21
64.7112757043
 31
0.0
  0
ARC
  5
3F7
330
1F
100
AcDbEntity
  8
0
  6
Continuous
 62
     7
370
    25
100
AcDbCircle
 10
112.5
 20
67.5
 30
0.0
 40
4.500000000000036
100
AcDbArc
 50
153.0386289048
 51
206.9613710952
  0
LINE
  5
3F8
330
1F
100
AcDbEntity
  8
0
  6
Continuous
 62
     7
370
    25
100
AcDbLine
 10
107.7406234456
 20
70.2887242957
 30
0.0
 11
108.4890941875
 21
69.5402535537
 31
0.0
  0
ARC
  5
3F9
330
1F
100
AcDbEntity
  8
0
  6
Continuous
 62
     7
370
    25
100
AcDbCircle
 10
107.5284914112
 20
70.0765922613
 30
0.0
 40
0.3000000000000145
100
AcDbArc
 50
45.0
 51
135.0
  0
LINE
  5
3FA
330
1F
100
AcDbEntity
  8
0
  6
Continuous
 62
     7
370
    25
100
AcDbLine
 10
106.9474406887
 20
69.9198056076
 30
0.0
 11
107.3163593768
 21
70.2887242957
 31
0.0
  0
ARC
  5
3FB
330
1F
100
AcDbEntity
  8
0
  6
Continuous
 62
     7
370
    25
100
AcDbCircle
 10
106.7353086544
 20
70.1319376419
 30
0.0
 40
0.3000000000000114
100
AcDbArc
 50
180.0
 51
315.0
  0
LINE
  5
3FC
330
1F
100
AcDbEntity
  8
0
  6
Continuous
 62
     7
370
    25
100
AcDbLine
 10
106.4353086544
 20
72.487025267
 30
0.0
 11
106.4353086544
 21
70.1319376419
 31
0.0
  0
LINE
  5
3FD
330
1F
100
AcDbEntity
  8
0
  6
Continuous
 62
     7
370
    25
100
AcDbLine
 10
107.512974733
 20
73.5646913456
 30
0.0
 11
106.4353086544
 21
72.487025267
 31
0.0
  0
LINE
  5
3FE
330
1F
100
AcDbEntity
  8
0
  6
Continuous
 62
     7
370
    25
100
AcDbLine
 10
109.8680623581
 20
73.5646913456
 30
0.0
 11
107.512974733
 21
73.5646913456
 31
0.0
  0
ARC
  5
3FF
330
1F
100
AcDbEntity
  8
0
  6
Continuous
 62
     7
370
    25
100
AcDbCircle
 10
109.8680623581
 20
73.2646913456
 30
0.0
 40
0.3000000000000114
100
AcDbArc
 50
315.0
 51
90.0
  0
LINE
  5
400
330
1F
100
AcDbEntity
  8
0
  6
Continuous
 62
     7
370
    25
100
AcDbLine
 10
109.7112757043
 20
72.6836406232
 30
0.0
 11
110.0801943924
 21
73.0525593113
 31
0.0
  0
ARC
  5
401
330
1F
100
AcDbEntity
  8
0
  6
Continuous
 62
     7
370
    25
100
AcDbCircle
 10
109.9234077387
 20
72.4715085888
 30
0.0
 40
0.3000000000000145
100
AcDbArc
 50
135.0
 51
225.0
  0
LINE
  5
402
330
1F
100
AcDbEntity
  8
0
  6
Continuous
 62
     7
370
    25
100
AcDbLine
 10
110.4597464463
 20
71.5109058125
 30
0.0
 11
109.7112757043
 21
72.2593765544
 31
0.0
  0
ARC
  5
403
330
1F
100
AcDbEntity
  8
0
  6
Continuous
 62
     7
370
    25
100
AcDbCircle
 10
174.0
 20
84.0
 30
0.0
 40
3.550000000000016
100
AcDbArc
 50
241.361103524
 51
298.638896476
  0
LINE
  5
404
330
1F
100
AcDbEntity
  8
0
  6
Continuous
 62
     7
370
    25
100
AcDbLine
 10
171.7515849944
 20
80.337371432
 30
0.0
 11
172.2985283623
 21
80.8843147999
 31
0.0
  0
ARC
  5
405
330
1F
100
AcDbEntity
  8
0
  6
Continuous
 62
     7
370
    25
100
AcDbCircle
 10
171.0444782132
 20
81.0444782132
 30
0.0
 40
1.000000000000018
100
AcDbArc
 50
135.0
 51
315.0
  0
LINE
  5
406
330
1F
100
AcDbEntity
  8
0
  6
Continuous
 62
     7
370
    25
100
AcDbLine
 10
170.8843147999
 20
82.2985283623
 30
0.0
 11
170.337371432
 21
81.7515849944
 31
0.0
  0
ARC
  5
407
330
1F
100
AcDbEntity
  8
0
  6
Continuous
 62
     7
370
    25
100
AcDbCircle
 10
174.0
 20
84.0
 30
0.0
 40
3.550000000000009
100
AcDbArc
 50
151.361103524
 51
208.638896476
  0
LINE
  5
408
330
1F
100
AcDbEntity
  8
0
  6
Continuous
 62
     7
370
    25
100
AcDbLine
 10
170.337371432
 20
86.2484150056
 30
0.0
 11
170.8843147999
 21
85.7014716377
 31
0.0
  0
ARC
  5
409
330
1F
100
AcDbEntity
  8
0
  6
Continuous
 62
     7
370
    25
100
AcDbCircle
 10
171.0444782132
 20
86.9555217868
 30
0.0
 40
1.000000000000008
100
AcDbArc
 50
45.0
 51
225.0
  0
LINE
  5
40A
330
1F
100
AcDbEntity
  8
0
  6
Continuous
 62
     7
370
    25
100
AcDbLine
 10
172.2985283623
 20
87.1156852001
 30
0.0
 11
171.7515849944
 21
87.662628568
 31
0.0
  0
ARC
  5
40B
330
1F
100
AcDbEntity
  8
0
  6
Continuous
 62
     7
370
    25
100
AcDbCircle
 10
174.0
 20
84.0
 30
0.0
 40
3.550000000000002
100
AcDbArc
 50
61.361103524
 51
118.638896476
  0
LINE
  5
40C
330
1F
100
AcDbEntity
  8
0
  6
Continuous
 62
     7
370
    25
100
AcDbLine
 10
176.2484150056
 20
87.662628568
 30
0.0
 11
175.7014716377
 21
87.1156852001
 31
0.0
  0
ARC
  5
40D
330
1F
100
AcDbEntity
  8
0
  6
Continuous
 62
     7
370
    25
100
AcDbCircle
 10
176.9555217868
 20
86.9555217868
 30
0.0
 40
0.999999999999998
100
AcDbArc
 50
315.0
 51
135.0
  0
LINE
  5
40E
330
1F
100
AcDbEntity
  8
0
  6
Continuous
 62
     7
370
    25
100
AcDbLine
 10
177.1156852001
 20
85.7014716377
 30
0.0
 11
177.662628568
 21
86.2484150056
 31
0.0
  0
ARC
  5
40F
330
1F
100
AcDbEntity
  8
0
  6
Continuous
 62
     7
370
    25
100
AcDbCircle
 10
174.0
 20
84.0
 30
0.0
 40
3.550000000000018
100
AcDbArc
 50
331.361103524
 51
28.638896476
  0
LINE
  5
410
330
1F
100
AcDbEntity
  8
0
  6
Continuous
 62
     7
370
    25
100
AcDbLine
 10
177.662628568
 20
81.7515849944
 30
0.0
 11
177.1156852001
 21
82.2985283623
 31
0.0
  0
ARC
  5
411
330
1F
100
AcDbEntity
  8
0
  6
Continuous
 62
     7
370
    25
100
AcDbCircle
 10
176.9555217868
 20
81.0444782132
 30
0.0
 40
0.999999999999998
100
AcDbArc
 50
225.0
 51
45.0
  0
LINE
  5
412
330
1F
100
AcDbEntity
  8
0
  6
Continuous
 62
     7
370
    25
100
AcDbLine
 10
175.7014716377
 20
80.8843147999
 30
0.0
 11
176.2484150056
 21
80.337371432
 31
0.0
  0
LINE
  5
413
330
1F
100
AcDbEntity
  8
0
  6
Continuous
 62
     7
370
    25
100
AcDbLine
 10
151.4353086544
 20
64.8680623581
 30
0.0
 11
151.4353086544
 21
62.512974733
 31
0.0
  0
ARC
  5
414
330
1F
100
AcDbEntity
  8
0
  6
Continuous
 62
     7
370
    25
100
AcDbCircle
 10
151.7353086544
 20
64.8680623581
 30
0.0
 40
0.3000000000000114
100
AcDbArc
 50
45.0
 51
180.0
  0
LINE
  5
415
330
1F
100
AcDbEntity
  8
0
  6
Continuous
 62
     7
370
    25
100
AcDbLine
 10
152.3163593768
 20
64.7112757043
 30
0.0
 11
151.9474406887
 21
65.0801943924
 31
0.0
  0
ARC
  5
416
330
1F
100
AcDbEntity
  8
0
  6
Continuous
 62
     7
370
    25
100
AcDbCircle
 10
152.5284914112
 20
64.9234077387
 30
0.0
 40
0.3000000000000145
100
AcDbArc
 50
225.0
 51
315.0
  0
LINE
  5
417
330
1F
100
AcDbEntity
  8
0
  6
Continuous
 62
     7
370
    25
100
AcDbLine
 10
153.4890941875
 20
65.4597464463
 30
0.0
 11
152.7406234456
 21
64.7112757043
 31
0.0
  0
ARC
  5
418
330
1F
100
AcDbEntity
  8
0
  6
Continuous
 62
     7
370
    25
100
AcDbCircle
 10
157.5
 20
67.5
 30
0.0
 40
4.499999999999996
100
AcDbArc
 50
153.0386289048
 51
206.9613710952
  0
LINE
  5
419
330
1F
100
AcDbEntity
  8
0
  6
Continuous
 62
     7
370
    25
100
AcDbLine
 10
152.7406234456
 20
70.2887242957
 30
0.0
 11
153.4890941875
 21
69.5402535537
 31
0.0
  0
ARC
  5
41A
330
1F
100
AcDbEntity
  8
0
  6
Continuous
 62
     7
370
    25
100
AcDbCircle
 10
152.5284914112
 20
70.0765922613
 30
0.0
 40
0.3000000000000145
100
AcDbArc
 50
45.0
 51
135.0
  0
LINE
  5
41B
330
1F
100
AcDbEntity
  8
0
  6
Continuous
 62
     7
370
    25
100
AcDbLine
 10
151.9474406887
 20
69.9198056076
 30
0.0
 11
152.3163593768
 21
70.2887242957
 31
0.0
  0
ARC
  5
41C
330
1F
100
AcDbEntity
  8
0
  6
Continuous
 62
     7
370
    25
100
AcDbCircle
 10
151.7353086544
 20
70.1319376419
 30
0.0
 40
0.3000000000000398
100
AcDbArc
 50
180.0
 51
315.0
  0
LINE
  5
41D
330
1F
100
AcDbEntity
  8
0
  6
Continuous
 62
     7
370
    25
100
AcDbLine
 10
151.4353086544
 20
72.487025267
 30
0.0
 11
151.4353086544
 21
70.1319376419
 31
0.0
  0
LINE
  5
41E
330
1F
100
AcDbEntity
  8
0
  6
Continuous
 62
     7
370
    25
100
AcDbLine
 10
152.512974733
 20
73.5646913456
 30
0.0
 11
151.4353086544
 21
72.487025267
 31
0.0
  0
LINE
  5
41F
330
1F
100
AcDbEntity
  8
0
  6
Continuous
 62
     7
370
    25
100
AcDbLine
 10
154.8680623581
 20
73.5646913456
 30
0.0
 11
152.512974733
 21
73.5646913456
 31
0.0
  0
ARC
  5
420
330
1F
100
AcDbEntity
  8
0
  6
Continuous
 62
     7
370
    25
100
AcDbCircle
 10
154.8680623581
 20
73.2646913456
 30
0.0
 40
0.3000000000000245
100
AcDbArc
 50
315.0
 51
90.0
  0
LINE
  5
421
330
1F
100
AcDbEntity
  8
0
  6
Continuous
 62
     7
370
    25
100
AcDbLine
 10
154.7112757043
 20
72.6836406232
 30
0.0
 11
155.0801943924
 21
73.0525593113
 31
0.0
  0
ARC
  5
422
330
1F
100
AcDbEntity
  8
0
  6
Continuous
 62
     7
370
    25
100
AcDbCircle
 10
154.9234077387
 20
72.4715085888
 30
0.0
 40
0.3000000000000245
100
AcDbArc
 50
135.0
 51
225.0
  0
LINE
  5
423
330
1F
100
AcDbEntity
  8
0
  6
Continuous
 62
     7
370
    25
100
AcDbLine
 10
155.4597464463
 20
71.5109058125
 30
0.0
 11
154.7112757043
 21
72.2593765544
 31
0.0
  0
ARC
  5
424
330
1F
100
AcDbEntity
  8
0
  6
Continuous
 62
     7
370
    25
100
AcDbCircle
 10
157.5
 20
67.5
 30
0.0
 40
4.500000000000004
100
AcDbArc
 50
63.0386289048
 51
116.9613710952
  0
LINE
  5
425
330
1F
100
AcDbEntity
  8
0
  6
Continuous
 62
     7
370
    25
100
AcDbLine
 10
160.2887242957
 20
72.2593765544
 30
0.0
 11
159.5402535537
 21
71.5109058125
 31
0.0
  0
ARC
  5
426
330
1F
100
AcDbEntity
  8
0
  6
Continuous
 62
     7
370
    25
100
AcDbCircle
 10
160.0765922613
 20
72.4715085888
 30
0.0
 40
0.3000000000000145
100
AcDbArc
 50
315.0
 51
45.0
  0
LINE
  5
427
330
1F
100
AcDbEntity
  8
0
  6
Continuous
 62
     7
370
    25
100
AcDbLine
 10
159.9198056076
 20
73.0525593113
 30
0.0
 11
160.2887242957
 21
72.6836406232
 31
0.0
  0
ARC
  5
428
330
1F
100
AcDbEntity
  8
0
  6
Continuous
 62
     7
370
    25
100
AcDbCircle
 10
160.1319376419
 20
73.2646913456
 30
0.0
 40
0.3000000000000044
100
AcDbArc
 50
90.0
 51
225.0
  0
LINE
  5
429
330
1F
100
AcDbEntity
  8
0
  6
Continuous
 62
     7
370
    25
100
AcDbLine
 10
162.487025267
 20
73.5646913456
 30
0.0
 11
160.1319376419
 21
73.5646913456
 31
0.0
  0
LINE
  5
42A
330
1F
100
AcDbEntity
  8
0
  6
Continuous
 62
     7
370
    25
100
AcDbLine
 10
163.5646913456
 20
72.487025267
 30
0.0
 11
162.487025267
 21
73.5646913456
 31
0.0
  0
LINE
  5
42B
330
1F
100
AcDbEntity
  8
0
  6
Continuous
 62
     7
370
    25
100
AcDbLine
 10
163.5646913456
 20
70.1319376419
 30
0.0
 11
163.5646913456
 21
72.487025267
 31
0.0
  0
ARC
  5
42C
330
1F
100
AcDbEntity
  8
0
  6
Continuous
 62
     7
370
    25
100
AcDbCircle
 10
163.2646913456
 20
70.1319376419
 30
0.0
 40
0.3000000000000114
100
AcDbArc
 50
225.0
 51
360.0
  0
LINE
  5
42D
330
1F
100
AcDbEntity
  8
0
  6
Continuous
 62
     7
370
    25
100
AcDbLine
 10
162.6836406232
 20
70.2887242957
 30
0.0
 11
163.0525593113
 21
69.9198056076
 31
0.0
  0
ARC
  5
42E
330
1F
100
AcDbEntity
  8
0
  6
Continuous
 62
     7
370
    25
100
AcDbCircle
 10
162.4715085888
 20
70.0765922613
 30
0.0
 40
0.3000000000000245
100
AcDbArc
 50
45.0
 51
135.0
  0
LINE
  5
42F
330
1F
100
AcDbEntity
  8
0
  6
Continuous
 62
     7
370
    25
100
AcDbLine
 10
161.5109058125
 20
69.5402535537
 30
0.0
 11
162.2593765544
 21
70.2887242957
 31
0.0
  0
ARC
  5
430
330
1F
100
AcDbEntity
  8
0
  6
Continuous
 62
     7
370
    25
100
AcDbCircle
 10
157.5
 20
67.5
 30
0.0
 40
4.500000000000041
100
AcDbArc
 50
333.0386289048
 51
26.9613710952
  0
LINE
  5
431
330
1F
100
AcDbEntity
  8
0
  6
Continuous
 62
     7
370
    25
100
AcDbLine
 10
162.2593765544
 20
64.7112757043
 30
0.0
 11
161.5109058125
 21
65.4597464463
 31
0.0
  0
ARC
  5
432
330
1F
100
AcDbEntity
  8
0
  6
Continuous
 62
     7
370
    25
100
AcDbCircle
 10
162.4715085888
 20
64.9234077387
 30
0.0
 40
0.3000000000000245
100
AcDbArc
 50
225.0
 51
315.0
  0
LINE
  5
433
330
1F
100
AcDbEntity
  8
0
  6
Continuous
 62
     7
370
    25
100
AcDbLine
 10
163.0525593113
 20
65.0801943924
 30
0.0
 11
162.6836406232
 21
64.7112757043
 31
0.0
  0
ARC
  5
434
330
1F
100
AcDbEntity
  8
0
  6
Continuous
 62
     7
370
    25
100
AcDbCircle
 10
163.2646913456
 20
64.8680623581
 30
0.0
 40
0.3000000000000114
100
AcDbArc
 50
0.0
 51
135.0
  0
LINE
  5
435
330
1F
100
AcDbEntity
  8
0
  6
Continuous
 62
     7
370
    25
100
AcDbLine
 10
163.5646913456
 20
62.512974733
 30
0.0
 11
163.5646913456
 21
64.8680623581
 31
0.0
  0
LINE
  5
436
330
1F
100
AcDbEntity
  8
0
  6
Continuous
 62
     7
370
    25
100
AcDbLine
 10
162.487025267
 20
61.4353086544
 30
0.0
 11
163.5646913456
 21
62.512974733
 31
0.0
  0
LINE
  5
437
330
1F
100
AcDbEntity
  8
0
  6
Continuous
 62
     7
370
    25
100
AcDbLine
 10
160.1319376419
 20
61.4353086544
 30
0.0
 11
162.487025267
 21
61.4353086544
 31
0.0
  0
ARC
  5
438
330
1F
100
AcDbEntity
  8
0
  6
Continuous
 62
     7
370
    25
100
AcDbCircle
 10
160.1319376419
 20
61.7353086544
 30
0.0
 40
0.3000000000000114
100
AcDbArc
 50
135.0
 51
270.0
  0
LINE
  5
439
330
1F
100
AcDbEntity
  8
0
  6
Continuous
 62
     7
370
    25
100
AcDbLine
 10
160.2887242957
 20
62.3163593768
 30
0.0
 11
159.9198056076
 21
61.9474406887
 31
0.0
  0
ARC
  5
43A
330
1F
100
AcDbEntity
  8
0
  6
Continuous
 62
     7
370
    25
100
AcDbCircle
 10
160.0765922613
 20
62.5284914112
 30
0.0
 40
0.2999999999999994
100
AcDbArc
 50
315.0
 51
45.0
  0
LINE
  5
43B
330
1F
100
AcDbEntity
  8
0
  6
Continuous
 62
     7
370
    25
100
AcDbLine
 10
159.5402535537
 20
63.4890941875
 30
0.0
 11
160.2887242957
 21
62.7406234456
 31
0.0
  0
ARC
  5
43C
330
1F
100
AcDbEntity
  8
0
  6
Continuous
 62
     7
370
    25
100
AcDbCircle
 10
157.5
 20
67.5
 30
0.0
 40
4.500000000000004
100
AcDbArc
 50
243.0386289048
 51
296.9613710952
  0
LINE
  5
43D
330
1F
100
AcDbEntity
  8
0
  6
Continuous
 62
     7
370
    25
100
AcDbLine
 10
154.7112757043
 20
62.7406234456
 30
0.0
 11
155.4597464463
 21
63.4890941875
 31
0.0
  0
ARC
  5
43E
330
1F
100
AcDbEntity
  8
0
  6
Continuous
 62
     7
370
    25
100
AcDbCircle
 10
154.9234077387
 20
62.5284914112
 30
0.0
 40
0.3000000000000195
100
AcDbArc
 50
135.0
 51
225.0
  0
LINE
  5
43F
330
1F
100
AcDbEntity
  8
0
  6
Continuous
 62
     7
370
    25
100
AcDbLine
 10
155.0801943924
 20
61.9474406887
 30
0.0
 11
154.7112757043
 21
62.3163593768
 31
0.0
  0
ARC
  5
440
330
1F
100
AcDbEntity
  8
0
  6
Continuous
 62
     7
370
    25
100
AcDbCircle
 10
154.8680623581
 20
61.7353086544
 30
0.0
 40
0.3000000000000145
100
AcDbArc
 50
270.0
 51
45.0
  0
LINE
  5
441
330
1F
100
AcDbEntity
  8
0
  6
Continuous
 62
     7
370
    25
100
AcDbLine
 10
152.512974733
 20
61.4353086544
 30
0.0
 11
154.8680623581
 21
61.4353086544
 31
0.0
  0
LINE
  5
442
330
1F
100
AcDbEntity
  8
0
  6
Continuous
 62
     7
370
    25
100
AcDbLine
 10
151.4353086544
 20
62.512974733
 30
0.0
 11
152.512974733
 21
61.4353086544
 31
0.0
  0
ENDSEC
  0
SECTION
  2
OBJECTS
  0
DICTIONARY
  5
C
330
0
100
AcDbDictionary
281
     1
  3
ACAD_GROUP
350
D
  3
ACAD_LAYOUT
350
1A
  3
ACAD_MLINESTYLE
350
17
  3
ACAD_PLOTSETTINGS
350
19
  3
ACAD_PLOTSTYLENAME
350
E
  3
ACAD_SCALELIST
350
47
  0
DICTIONARY
  5
D
102
{ACAD_REACTORS
330
C
102
}
330
C
100
AcDbDictionary
281
     1
  0
DICTIONARY
  5
1A
102
{ACAD_REACTORS
330
C
102
}
330
C
100
AcDbDictionary
281
     1
  3
Layout1
350
1E
  3
Layout2
350
26
  3
Model
350
22
  0
DICTIONARY
  5
17
102
{ACAD_REACTORS
330
C
102
}
330
C
100
AcDbDictionary
281
     1
  3
Standard
350
18
  0
DICTIONARY
  5
19
102
{ACAD_REACTORS
330
C
102
}
330
C
100
AcDbDictionary
281
     1
  0
ACDBDICTIONARYWDFLT
  5
E
102
{ACAD_REACTORS
330
C
102
}
330
C
100
AcDbDictionary
281
     1
  3
Normal
350
F
100
AcDbDictionaryWithDefault
340
F
  0
DICTIONARY
  5
47
102
{ACAD_REACTORS
330
C
102
}
330
C
100
AcDbDictionary
281
     1
  3
A0
350
48
  3
A1
350
49
  3
A2
350
4A
  3
A3
350
4B
  3
A4
350
4C
  3
A5
350
4D
  3
A6
350
4E
  3
A7
350
4F
  3
A8
350
50
  3
A9
350
51
  3
B0
350
52
  3
B1
350
53
  3
B2
350
54
  3
B3
350
55
  3
B4
350
56
  3
B5
350
57
  3
B6
350
58
  3
B7
350
59
  3
B8
350
5A
  3
B9
350
5B
  3
C0
350
5C
  3
C1
350
5D
  3
C2
350
5E
  3
C3
350
5F
  3
C4
350
60
  3
C5
350
61
  3
C6
350
62
  3
C7
350
63
  3
C8
350
64
  3
C9
350
65
  3
D0
350
66
  3
D1
350
67
  3
D2
350
68
  0
LAYOUT
  5
1E
102
{ACAD_REACTORS
330
1A
102
}
330
1A
100
AcDbPlotSettings
  1

  2
none_device
  4

  6

 40
0.0
 41
0.0
 42
0.0
 43
0.0
 44
0.0
 45
0.0
 46
0.0
 47
0.0
 48
0.0
 49
0.0
140
0.0
141
0.0
142
1.0
143
1.0
 70
   688
 72
     1
 73
     0
 74
     5
  7

 75
    16
147
1.0
148
0.0
149
0.0
100
AcDbLayout
  1
Layout1
 70
     1
 71
     1
 10
0.0
 20
0.0
 11
420.0
 21
297.0
 12
0.0
 22
0.0
 32
0.0
 14
1.0000000000E+20
 24
1.0000000000E+20
 34
1.0000000000E+20
 15
-1.0000000000E+20
 25
-1.0000000000E+20
 35
-1.0000000000E+20
146
0.0
 13
0.0
 23
0.0
 33
0.0
 16
1.0
 26
0.0
 36
0.0
 17
0.0
 27
1.0
 37
0.0
 76
     0
330
1B
  0
LAYOUT
  5
26
102
{ACAD_REACTORS
330
1A
102
}
330
1A
100
AcDbPlotSettings
  1

  2
none_device
  4

  6

 40
0.0
 41
0.0
 42
0.0
 43
0.0
 44
0.0
 45
0.0
 46
0.0
 47
0.0
 48
0.0
 49
0.0
140
0.0
141
0.0
142
1.0
143
1.0
 70
   688
 72
     1
 73
     0
 74
     5
  7

 75
    16
147
1.0
148
0.0
149
0.0
100
AcDbLayout
  1
Layout2
 70
     1
 71
     2
 10
0.0
 20
0.0
 11
0.0
 21
0.0
 12
0.0
 22
0.0
 32
0.0
 14
0.0
 24
0.0
 34
0.0
 15
0.0
 25
0.0
 35
0.0
146
0.0
 13
0.0
 23
0.0
 33
0.0
 16
1.0
 26
0.0
 36
0.0
 17
0.0
 27
1.0
 37
0.0
 76
     0
330
23
  0
LAYOUT
  5
22
102
{ACAD_REACTORS
330
1A
102
}
330
1A
100
AcDbPlotSettings
  1

  2
none_device
  4
ANSI_A_(11.00_x_8.50_Inches)
  6

 40
6.35
 41
19.05
 42
6.35000508
 43
19.05000254
 44
279.4
 45
215.9
 46
-4.95300254
 47
19.74849873
 48
0.0
 49
0.0
140
0.0
141
0.0
142
0.0605
143
1.0
 70
  1696
 72
     0
 73
     0
 74
     0
  7

 75
     0
147
0.0179189148
148
-1300.4909072572
149
0.0
100
AcDbLayout
  1
Model
 70
     1
 71
     0
 10
0.0
 20
0.0
 11
420.0
 21
297.0
 12
0.0
 22
0.0
 32
0.0
 14
0.0
 24
0.0
 34
0.0
 15
180.0
 25
90.0
 35
0.0
146
0.0
 13
0.0
 23
0.0
 33
0.0
 16
1.0
 26
0.0
 36
0.0
 17
0.0
 27
1.0
 37
0.0
 76
     0
330
1F
331
29
  0
MLINESTYLE
  5
18
102
{ACAD_REACTORS
330
17
102
}
330
17
100
AcDbMlineStyle
  2
Standard
 70
     0
  3

 62
   256
 51
90.0
 52
90.0
 71
     2
 49
0.5
 62
   256
  6
BYLAYER
 49
-0.5
 62
   256
  6
BYLAYER
  0
ACDBPLACEHOLDER
  5
F
102
{ACAD_REACTORS
330
E
102
}
330
E
  0
SCALE
  5
48
102
{ACAD_REACTORS
330
47
102
}
330
47
100
AcDbScale
 70
     0
300
1:1
140
1.0
141
1.0
290
     1
  0
SCALE
  5
49
102
{ACAD_REACTORS
330
47
102
}
330
47
100
AcDbScale
 70
     0
300
1:2
140
1.0
141
2.0
290
     0
  0
SCALE
  5
4A
102
{ACAD_REACTORS
330
47
102
}
330
47
100
AcDbScale
 70
     0
300
1:4
140
1.0
141
4.0
290
     0
  0
SCALE
  5
4B
102
{ACAD_REACTORS
330
47
102
}
330
47
100
AcDbScale
 70
     0
300
1:5
140
1.0
141
5.0
290
     0
  0
SCALE
  5
4C
102
{ACAD_REACTORS
330
47
102
}
330
47
100
AcDbScale
 70
     0
300
1:8
140
1.0
141
8.0
290
     0
  0
SCALE
  5
4D
102
{ACAD_REACTORS
330
47
102
}
330
47
100
AcDbScale
 70
     0
300
1:10
140
1.0
141
10.0
290
     0
  0
SCALE
  5
4E
102
{ACAD_REACTORS
330
47
102
}
330
47
100
AcDbScale
 70
     0
300
1:16
140
1.0
141
16.0
290
     0
  0
SCALE
  5
4F
102
{ACAD_REACTORS
330
47
102
}
330
47
100
AcDbScale
 70
     0
300
1:20
140
1.0
141
20.0
290
     0
  0
SCALE
  5
50
102
{ACAD_REACTORS
330
47
102
}
330
47
100
AcDbScale
 70
     0
300
1:30
140
1.0
141
30.0
290
     0
  0
SCALE
  5
51
102
{ACAD_REACTORS
330
47
102
}
330
47
100
AcDbScale
 70
     0
300
1:40
140
1.0
141
40.0
290
     0
  0
SCALE
  5
52
102
{ACAD_REACTORS
330
47
102
}
330
47
100
AcDbScale
 70
     0
300
1:50
140
1.0
141
50.0
290
     0
  0
SCALE
  5
53
102
{ACAD_REACTORS
330
47
102
}
330
47
100
AcDbScale
 70
     0
300
1:100
140
1.0
141
100.0
290
     0
  0
SCALE
  5
54
102
{ACAD_REACTORS
330
47
102
}
330
47
100
AcDbScale
 70
     0
300
2:1
140
2.0
141
1.0
290
     0
  0
SCALE
  5
55
102
{ACAD_REACTORS
330
47
102
}
330
47
100
AcDbScale
 70
     0
300
4:1
140
4.0
141
1.0
290
     0
  0
SCALE
  5
56
102
{ACAD_REACTORS
330
47
102
}
330
47
100
AcDbScale
 70
     0
300
8:1
140
8.0
141
1.0
290
     0
  0
SCALE
  5
57
102
{ACAD_REACTORS
330
47
102
}
330
47
100
AcDbScale
 70
     0
300
10:1
140
10.0
141
1.0
290
     0
  0
SCALE
  5
58
102
{ACAD_REACTORS
330
47
102
}
330
47
100
AcDbScale
 70
     0
300
100:1
140
100.0
141
1.0
290
     0
  0
SCALE
  5
59
102
{ACAD_REACTORS
330
47
102
}
330
47
100
AcDbScale
 70
     0
300
1/128" = 1'-0"
140
0.0078125
141
12.0
290
     0
  0
SCALE
  5
5A
102
{ACAD_REACTORS
330
47
102
}
330
47
100
AcDbScale
 70
     0
300
1/64" = 1'-0"
140
0.015625
141
12.0
290
     0
  0
SCALE
  5
5B
102
{ACAD_REACTORS
330
47
102
}
330
47
100
AcDbScale
 70
     0
300
1/32" = 1'-0"
140
0.03125
141
12.0
290
     0
  0
SCALE
  5
5C
102
{ACAD_REACTORS
330
47
102
}
330
47
100
AcDbScale
 70
     0
300
1/16" = 1'-0"
140
0.0625
141
12.0
290
     0
  0
SCALE
  5
5D
102
{ACAD_REACTORS
330
47
102
}
330
47
100
AcDbScale
 70
     0
300
3/32" = 1'-0"
140
0.09375
141
12.0
290
     0
  0
SCALE
  5
5E
102
{ACAD_REACTORS
330
47
102
}
330
47
100
AcDbScale
 70
     0
300
1/8" = 1'-0"
140
0.125
141
12.0
290
     0
  0
SCALE
  5
5F
102
{ACAD_REACTORS
330
47
102
}
330
47
100
AcDbScale
 70
     0
300
3/16" = 1'-0"
140
0.1875
141
12.0
290
     0
  0
SCALE
  5
60
102
{ACAD_REACTORS
330
47
102
}
330
47
100
AcDbScale
 70
     0
300
1/4" = 1'-0"
140
0.25
141
12.0
290
     0
  0
SCALE
  5
61
102
{ACAD_REACTORS
330
47
102
}
330
47
100
AcDbScale
 70
     0
300
3/8" = 1'-0"
140
0.375
141
12.0
290
     0
  0
SCALE
  5
62
102
{ACAD_REACTORS
330
47
102
}
330
47
100
AcDbScale
 70
     0
300
1/2" = 1'-0"
140
0.5
141
12.0
290
     0
  0
SCALE
  5
63
102
{ACAD_REACTORS
330
47
102
}
330
47
100
AcDbScale
 70
     0
300
3/4" = 1'-0"
140
0.75
141
12.0
290
     0
  0
SCALE
  5
64
102
{ACAD_REACTORS
330
47
102
}
330
47
100
AcDbScale
 70
     0
300
1" = 1'-0"
140
1.0
141
12.0
290
     0
  0
SCALE
  5
65
102
{ACAD_REACTORS
330
47
102
}
330
47
100
AcDbScale
 70
     0
300
1-1/2" = 1'-0"
140
1.5
141
12.0
290
     0
  0
SCALE
  5
66
102
{ACAD_REACTORS
330
47
102
}
330
47
100
AcDbScale
 70
     0
300
3" = 1'-0"
140
3.0
141
12.0
290
     0
  0
SCALE
  5
67
102
{ACAD_REACTORS
330
47
102
}
330
47
100
AcDbScale
 70
     0
300
6" = 1'-0"
140
6.0
141
12.0
290
     0
  0
SCALE
  5
68
102
{ACAD_REACTORS
330
47
102
}
330
47
100
AcDbScale
 70
     0
300
1'-0" = 1'-0"
140
12.0
141
12.0
290
     0
  0
ENDSEC
  0
EOF
