  0
SECTION
  2
HEADER
  9
$ACADVER
  1
AC1015
  9
$ACADMAINTVER
 70
     6
  9
$DWGCODEPAGE
  3
ANSI_1256
  9
$INSBASE
 10
0.0
 20
0.0
 30
0.0
  9
$EXTMIN
 10
-0.0000000001
 20
-0.0000000001
 30
0.0
  9
$EXTMAX
 10
135.0
 20
135.0
 30
0.0
  9
$LIMMIN
 10
0.0
 20
0.0
  9
$LIMMAX
 10
420.0
 20
297.0
  9
$ORTHOMODE
 70
     0
  9
$REGENMODE
 70
     1
  9
$FILLMODE
 70
     1
  9
$QTEXTMODE
 70
     0
  9
$MIRRTEXT
 70
     1
  9
$LTSCALE
 40
1.0
  9
$ATTMODE
 70
     1
  9
$TEXTSIZE
 40
3.175
  9
$TRACEWID
 40
1.0
  9
$TEXTSTYLE
  7
STANDARD
  9
$CLAYER
  8
0
  9
$CELTYPE
  6
ByLayer
  9
$CECOLOR
 62
   256
  9
$CELTSCALE
 40
1.0
  9
$DISPSILH
 70
     0
  9
$DIMSCALE
 40
1.0
  9
$DIMASZ
 40
3.302
  9
$DIMEXO
 40
1.27
  9
$DIMDLI
 40
3.75
  9
$DIMRND
 40
0.0
  9
$DIMDLE
 40
0.0
  9
$DIMEXE
 40
3.175
  9
$DIMTP
 40
0.0
  9
$DIMTM
 40
0.0
  9
$DIMTXT
 40
3.175
  9
$DIMCEN
 40
2.5
  9
$DIMTSZ
 40
0.0
  9
$DIMTOL
 70
     0
  9
$DIMLIM
 70
     0
  9
$DIMTIH
 70
     1
  9
$DIMTOH
 70
     1
  9
$DIMSE1
 70
     0
  9
$DIMSE2
 70
     0
  9
$DIMTAD
 70
     0
  9
$DIMZIN
 70
     0
  9
$DIMBLK
  1

  9
$DIMASO
 70
     1
  9
$DIMSHO
 70
     1
  9
$DIMPOST
  1

  9
$DIMAPOST
  1

  9
$DIMALT
 70
     0
  9
$DIMALTD
 70
     3
  9
$DIMALTF
 40
0.0393700787
  9
$DIMLFAC
 40
1.0
  9
$DIMTOFL
 70
     1
  9
$DIMTVP
 40
0.0
  9
$DIMTIX
 70
     0
  9
$DIMSOXD
 70
     0
  9
$DIMSAH
 70
     0
  9
$DIMBLK1
  1

  9
$DIMBLK2
  1

  9
$DIMSTYLE
  2
ISO-25
  9
$DIMCLRD
 70
     0
  9
$DIMCLRE
 70
     0
  9
$DIMCLRT
 70
     0
  9
$DIMTFAC
 40
1.0
  9
$DIMGAP
 40
1.524
  9
$DIMJUST
 70
     0
  9
$DIMSD1
 70
     0
  9
$DIMSD2
 70
     0
  9
$DIMTOLJ
 70
     0
  9
$DIMTZIN
 70
     0
  9
$DIMALTZ
 70
     0
  9
$DIMALTTZ
 70
     0
  9
$DIMUPT
 70
     0
  9
$DIMDEC
 70
     2
  9
$DIMTDEC
 70
     2
  9
$DIMALTU
 70
     2
  9
$DIMALTTD
 70
     3
  9
$DIMTXSTY
  7
STANDARD
  9
$DIMAUNIT
 70
     0
  9
$DIMADEC
 70
     2
  9
$DIMALTRND
 40
0.0
  9
$DIMAZIN
 70
     0
  9
$DIMDSEP
 70
    44
  9
$DIMATFIT
 70
     3
  9
$DIMFRAC
 70
     0
  9
$DIMLDRBLK
  1

  9
$DIMLUNIT
 70
     2
  9
$DIMLWD
 70
    -2
  9
$DIMLWE
 70
    -2
  9
$DIMTMOVE
 70
     0
  9
$LUNITS
 70
     2
  9
$LUPREC
 70
     2
  9
$SKETCHINC
 40
1.0
  9
$FILLETRAD
 40
10.0
  9
$AUNITS
 70
     0
  9
$AUPREC
 70
     2
  9
$MENU
  1
.
  9
$ELEVATION
 40
0.0
  9
$PELEVATION
 40
0.0
  9
$THICKNESS
 40
0.0
  9
$LIMCHECK
 70
     0
  9
$CHAMFERA
 40
0.0
  9
$CHAMFERB
 40
0.0
  9
$CHAMFERC
 40
0.0
  9
$CHAMFERD
 40
0.0
  9
$SKPOLY
 70
     0
  9
$TDCREATE
 40
2457978.85455941
  9
$TDUCREATE
 40
2457978.771226076
  9
$TDUPDATE
 40
2457978.854596482
  9
$TDUUPDATE
 40
2457978.771263148
  9
$TDINDWG
 40
0.0000000116
  9
$TDUSRTIMER
 40
0.0000000116
  9
$USRTIMER
 70
     1
  9
$ANGBASE
 50
0.0
  9
$ANGDIR
 70
     0
  9
$PDMODE
 70
     0
  9
$PDSIZE
 40
-1.0
  9
$PLINEWID
 40
0.0
  9
$SPLFRAME
 70
     0
  9
$SPLINETYPE
 70
     6
  9
$SPLINESEGS
 70
     8
  9
$HANDSEED
  5
3DB
  9
$SURFTAB1
 70
     6
  9
$SURFTAB2
 70
     6
  9
$SURFTYPE
 70
     6
  9
$SURFU
 70
     6
  9
$SURFV
 70
     6
  9
$UCSBASE
  2

  9
$UCSNAME
  2

  9
$UCSORG
 10
0.0
 20
0.0
 30
0.0
  9
$UCSXDIR
 10
1.0
 20
0.0
 30
0.0
  9
$UCSYDIR
 10
0.0
 20
1.0
 30
0.0
  9
$UCSORTHOREF
  2

  9
$UCSORTHOVIEW
 70
     0
  9
$UCSORGTOP
 10
0.0
 20
0.0
 30
0.0
  9
$UCSORGBOTTOM
 10
0.0
 20
0.0
 30
0.0
  9
$UCSORGLEFT
 10
0.0
 20
0.0
 30
0.0
  9
$UCSORGRIGHT
 10
0.0
 20
0.0
 30
0.0
  9
$UCSORGFRONT
 10
0.0
 20
0.0
 30
0.0
  9
$UCSORGBACK
 10
0.0
 20
0.0
 30
0.0
  9
$PUCSBASE
  2

  9
$PUCSNAME
  2

  9
$PUCSORG
 10
0.0
 20
0.0
 30
0.0
  9
$PUCSXDIR
 10
1.0
 20
0.0
 30
0.0
  9
$PUCSYDIR
 10
0.0
 20
1.0
 30
0.0
  9
$PUCSORTHOREF
  2

  9
$PUCSORTHOVIEW
 70
     0
  9
$PUCSORGTOP
 10
0.0
 20
0.0
 30
0.0
  9
$PUCSORGBOTTOM
 10
0.0
 20
0.0
 30
0.0
  9
$PUCSORGLEFT
 10
0.0
 20
0.0
 30
0.0
  9
$PUCSORGRIGHT
 10
0.0
 20
0.0
 30
0.0
  9
$PUCSORGFRONT
 10
0.0
 20
0.0
 30
0.0
  9
$PUCSORGBACK
 10
0.0
 20
0.0
 30
0.0
  9
$USERI1
 70
     0
  9
$USERI2
 70
     0
  9
$USERI3
 70
     0
  9
$USERI4
 70
     0
  9
$USERI5
 70
     0
  9
$USERR1
 40
0.0
  9
$USERR2
 40
0.0
  9
$USERR3
 40
0.0
  9
$USERR4
 40
0.0
  9
$USERR5
 40
0.0
  9
$WORLDVIEW
 70
     1
  9
$SHADEDGE
 70
     3
  9
$SHADEDIF
 70
    70
  9
$TILEMODE
 70
     1
  9
$MAXACTVP
 70
    64
  9
$PINSBASE
 10
0.0
 20
0.0
 30
0.0
  9
$PLIMCHECK
 70
     0
  9
$PEXTMIN
 10
1.0000000000E+20
 20
1.0000000000E+20
 30
1.0000000000E+20
  9
$PEXTMAX
 10
-1.0000000000E+20
 20
-1.0000000000E+20
 30
-1.0000000000E+20
  9
$PLIMMIN
 10
0.0
 20
0.0
  9
$PLIMMAX
 10
420.0
 20
297.0
  9
$UNITMODE
 70
     0
  9
$VISRETAIN
 70
     1
  9
$PLINEGEN
 70
     0
  9
$PSLTSCALE
 70
     1
  9
$TREEDEPTH
 70
  3020
  9
$CMLSTYLE
  2
Standard
  9
$CMLJUST
 70
     0
  9
$CMLSCALE
 40
20.0
  9
$PROXYGRAPHICS
 70
     1
  9
$MEASUREMENT
 70
     1
  9
$CELWEIGHT
370
    -1
  9
$ENDCAPS
280
     0
  9
$JOINSTYLE
280
     0
  9
$LWDISPLAY
290
     1
  9
$INSUNITS
 70
     4
  9
$HYPERLINKBASE
  1

  9
$STYLESHEET
  1

  9
$XEDIT
290
     1
  9
$CEPSNTYPE
380
     0
  9
$PSTYLEMODE
290
     1
  9
$FINGERPRINTGUID
  2
{1736D1AC-207F-41E6-8103-7BF526D43642}
  9
$VERSIONGUID
  2
{FAEB1C32-E019-11D5-929B-00C0DF256EC4}
  9
$EXTNAMES
290
     1
  9
$PSVPSCALE
 40
0.0
  9
$OLESTARTUP
290
     0
  0
ENDSEC
  0
SECTION
  2
CLASSES
  0
CLASS
  1
ACDBDICTIONARYWDFLT
  2
AcDbDictionaryWithDefault
  3
ObjectDBX Classes
 90
        0
280
     0
281
     0
  0
CLASS
  1
VISUALSTYLE
  2
AcDbVisualStyle
  3
ObjectDBX Classes
 90
     4095
280
     0
281
     0
  0
CLASS
  1
MATERIAL
  2
AcDbMaterial
  3
ObjectDBX Classes
 90
     1153
280
     0
281
     0
  0
CLASS
  1
SCALE
  2
AcDbScale
  3
ObjectDBX Classes
 90
     1153
280
     0
281
     0
  0
CLASS
  1
TABLESTYLE
  2
AcDbTableStyle
  3
ObjectDBX Classes
 90
     4095
280
     0
281
     0
  0
CLASS
  1
MLEADERSTYLE
  2
AcDbMLeaderStyle
  3
ACDB_MLEADERSTYLE_CLASS
 90
     4095
280
     0
281
     0
  0
CLASS
  1
SUN
  2
AcDbSun
  3
SCENEOE
 90
     1153
280
     0
281
     0
  0
CLASS
  1
ACDBPLACEHOLDER
  2
AcDbPlaceHolder
  3
ObjectDBX Classes
 90
        0
280
     0
281
     0
  0
CLASS
  1
LAYOUT
  2
AcDbLayout
  3
ObjectDBX Classes
 90
        0
280
     0
281
     0
  0
ENDSEC
  0
SECTION
  2
TABLES
  0
TABLE
  2
VPORT
  5
8
330
0
100
AcDbSymbolTable
 70
     1
  0
VPORT
  5
29
330
8
100
AcDbSymbolTableRecord
100
AcDbViewportTableRecord
  2
*Active
 70
     0
 10
0.0
 20
0.0
 11
1.0
 21
1.0
 12
67.5
 22
67.5
 13
0.0
 23
0.0
 14
10.0
 24
10.0
 15
10.0
 25
10.0
 16
0.0
 26
0.0
 36
1.0
 17
0.0
 27
0.0
 37
0.0
 40
137.7000000001
 41
1.0
 42
50.0
 43
0.0
 44
0.0
 50
0.0
 51
0.0
 71
     0
 72
   100
 73
     1
 74
     3
 75
     0
 76
     0
 77
     0
 78
     0
281
     0
 65
     1
110
0.0
120
0.0
130
0.0
111
1.0
121
0.0
131
0.0
112
0.0
122
1.0
132
0.0
 79
     0
146
0.0
  0
ENDTAB
  0
TABLE
  2
LTYPE
  5
5
330
0
100
AcDbSymbolTable
 70
     6
  0
LTYPE
  5
14
330
5
100
AcDbSymbolTableRecord
100
AcDbLinetypeTableRecord
  2
ByBlock
 70
     0
  3

 72
    65
 73
     0
 40
0.0
  0
LTYPE
  5
15
330
5
100
AcDbSymbolTableRecord
100
AcDbLinetypeTableRecord
  2
ByLayer
 70
     0
  3

 72
    65
 73
     0
 40
0.0
  0
LTYPE
  5
16
330
5
100
AcDbSymbolTableRecord
100
AcDbLinetypeTableRecord
  2
Continuous
 70
     0
  3
Solid line
 72
    65
 73
     0
 40
0.0
  0
LTYPE
  5
6E
330
5
100
AcDbSymbolTableRecord
100
AcDbLinetypeTableRecord
  2
HIDDEN
 70
     0
  3
Hidden __ __ __ __ __ __ __ __ __ __ __ __ __ __
 72
    65
 73
     2
 40
1.905
 49
1.27
 74
     0
 49
-0.635
 74
     0
  0
LTYPE
  5
6F
330
5
100
AcDbSymbolTableRecord
100
AcDbLinetypeTableRecord
  2
PHANTOM
 70
     0
  3
Phantom ______  __  __  ______  __  __  ______
 72
    65
 73
     6
 40
12.7
 49
6.35
 74
     0
 49
-1.27
 74
     0
 49
1.27
 74
     0
 49
-1.27
 74
     0
 49
1.27
 74
     0
 49
-1.27
 74
     0
  0
LTYPE
  5
70
330
5
100
AcDbSymbolTableRecord
100
AcDbLinetypeTableRecord
  2
CENTER
 70
     0
  3
Center ____ _ ____ _ ____ _ ____ _ ____ _ ____
 72
    65
 73
     4
 40
10.16
 49
6.35
 74
     0
 49
-1.27
 74
     0
 49
1.27
 74
     0
 49
-1.27
 74
     0
  0
LTYPE
  5
71
330
5
100
AcDbSymbolTableRecord
100
AcDbLinetypeTableRecord
  2
CENTERX2
 70
     0
  3
Center (2x) ________  __  ________  __  _____
 72
    65
 73
     4
 40
20.32
 49
12.7
 74
     0
 49
-2.54
 74
     0
 49
2.54
 74
     0
 49
-2.54
 74
     0
  0
LTYPE
  5
72
330
5
100
AcDbSymbolTableRecord
100
AcDbLinetypeTableRecord
  2
DOT2
 70
     0
  3
Dot (.5x) ........................................
 72
    65
 73
     2
 40
0.635
 49
0.0
 74
     0
 49
-0.635
 74
     0
  0
ENDTAB
  0
TABLE
  2
LAYER
  5
2
330
0
100
AcDbSymbolTable
 70
     1
  0
LAYER
  5
10
330
2
100
AcDbSymbolTableRecord
100
AcDbLayerTableRecord
  2
0
 70
     0
 62
     7
  6
Continuous
370
    -3
390
F
  0
ENDTAB
  0
TABLE
  2
STYLE
  5
3
330
0
100
AcDbSymbolTable
 70
     1
  0
STYLE
  5
11
330
3
100
AcDbSymbolTableRecord
100
AcDbTextStyleTableRecord
  2
STANDARD
 70
     0
 40
0.0
 41
1.0
 50
0.0
 71
     0
 42
3.175
  3
GOTHIC.TTF
  4

1001
ACAD
1000
CENTURY GOTHIC
1071
       34
  0
ENDTAB
  0
TABLE
  2
VIEW
  5
6
330
0
100
AcDbSymbolTable
 70
     0
  0
ENDTAB
  0
TABLE
  2
UCS
  5
7
330
0
100
AcDbSymbolTable
 70
     0
  0
ENDTAB
  0
TABLE
  2
APPID
  5
9
330
0
100
AcDbSymbolTable
 70
     1
  0
APPID
  5
12
330
9
100
AcDbSymbolTableRecord
100
AcDbRegAppTableRecord
  2
ACAD
 70
     0
  0
ENDTAB
  0
TABLE
  2
DIMSTYLE
  5
A
330
0
100
AcDbSymbolTable
 70
     1
100
AcDbDimStyleTable
  0
DIMSTYLE
105
27
330
A
100
AcDbSymbolTableRecord
100
AcDbDimStyleTableRecord
  2
ISO-25
 70
     0
 41
2.5
 42
0.625
 43
3.75
 44
1.25
 73
     0
 74
     0
 77
     1
 78
     8
140
2.5
141
2.5
143
0.0393700787
147
0.625
171
     3
172
     1
178
     0
271
     2
272
     2
274
     3
278
    44
283
     0
284
     8
340
11
  0
ENDTAB
  0
TABLE
  2
BLOCK_RECORD
  5
1
330
0
100
AcDbSymbolTable
 70
     1
  0
BLOCK_RECORD
  5
1F
330
1
100
AcDbSymbolTableRecord
100
AcDbBlockTableRecord
  2
*Model_Space
340
22
  0
BLOCK_RECORD
  5
1B
330
1
100
AcDbSymbolTableRecord
100
AcDbBlockTableRecord
  2
*Paper_Space
340
1E
  0
BLOCK_RECORD
  5
23
330
1
100
AcDbSymbolTableRecord
100
AcDbBlockTableRecord
  2
*Paper_Space0
340
26
  0
ENDTAB
  0
ENDSEC
  0
SECTION
  2
BLOCKS
  0
BLOCK
  5
20
330
1F
100
AcDbEntity
  8
0
100
AcDbBlockBegin
  2
*Model_Space
 70
     0
 10
0.0
 20
0.0
 30
0.0
  3
*Model_Space
  1

  0
ENDBLK
  5
21
330
1F
100
AcDbEntity
  8
0
100
AcDbBlockEnd
  0
BLOCK
  5
1C
330
1B
100
AcDbEntity
 67
     1
  8
0
100
AcDbBlockBegin
  2
*Paper_Space
 70
     0
 10
0.0
 20
0.0
 30
0.0
  3
*Paper_Space
  1

  0
ENDBLK
  5
1D
330
1B
100
AcDbEntity
 67
     1
  8
0
100
AcDbBlockEnd
  0
BLOCK
  5
24
330
23
100
AcDbEntity
  8
0
100
AcDbBlockBegin
  2
*Paper_Space0
 70
     0
 10
0.0
 20
0.0
 30
0.0
  3
*Paper_Space0
  1

  0
ENDBLK
  5
25
330
23
100
AcDbEntity
  8
0
100
AcDbBlockEnd
  0
ENDSEC
  0
SECTION
  2
ENTITIES
  0
ARC
  5
73
330
1F
100
AcDbEntity
  8
0
  6
Continuous
 62
     7
370
    25
100
AcDbCircle
 10
22.4919890071
 20
67.5
 30
0.0
 40
4.5000000000006
100
AcDbArc
 50
151.0429863594
 51
208.9570136406
  0
LINE
  5
74
330
1F
100
AcDbEntity
  8
0
  6
Continuous
 62
     7
370
    25
100
AcDbLine
 10
17.5014084595
 20
70.7729402986
 30
0.0
 11
18.5545646473
 21
69.6786898381
 31
0.0
  0
LINE
  5
75
330
1F
100
AcDbEntity
  8
0
  6
Continuous
 62
     7
370
    25
100
AcDbLine
 10
17.0576297139
 20
70.3458275408
 30
0.0
 11
17.5014084595
 21
70.7729402986
 31
0.0
  0
ARC
  5
76
330
1F
100
AcDbEntity
  8
0
  6
Continuous
 62
     7
370
    25
100
AcDbCircle
 10
16.8842676816
 20
70.525954179
 30
0.0
 40
0.2500000000000149
100
AcDbArc
 50
177.8073635593
 51
313.9036817796
  0
LINE
  5
77
330
1F
100
AcDbEntity
  8
0
  6
Continuous
 62
     7
370
    25
100
AcDbLine
 10
16.7179093543
 20
72.7153117186
 30
0.0
 11
16.6344507212
 21
70.5355190253
 31
0.0
  0
LINE
  5
78
330
1F
100
AcDbEntity
  8
0
  6
Continuous
 62
     7
370
    25
100
AcDbLine
 10
17.5014084595
 20
73.4693867321
 30
0.0
 11
16.7179093543
 21
72.7153117186
 31
0.0
  0
LINE
  5
79
330
1F
100
AcDbEntity
  8
0
  6
Continuous
 62
     7
370
    25
100
AcDbLine
 10
19.6827982756
 20
73.4693867321
 30
0.0
 11
17.5014084595
 21
73.4693867321
 31
0.0
  0
ARC
  5
7A
330
1F
100
AcDbEntity
  8
0
  6
Continuous
 62
     7
370
    25
100
AcDbCircle
 10
19.6827982756
 20
73.2193867321
 30
0.0
 40
0.2500000000000017
100
AcDbArc
 50
313.9036817796
 51
90.0
  0
LINE
  5
7B
330
1F
100
AcDbEntity
  8
0
  6
Continuous
 62
     7
370
    25
100
AcDbLine
 10
19.4123815621
 20
72.612147336
 30
0.0
 11
19.8561603078
 21
73.0392600939
 31
0.0
  0
LINE
  5
7C
330
1F
100
AcDbEntity
  8
0
  6
Continuous
 62
     7
370
    25
100
AcDbLine
 10
20.4655377499
 20
71.5178968755
 30
0.0
 11
19.4123815621
 21
72.612147336
 31
0.0
  0
ARC
  5
7D
330
1F
100
AcDbEntity
  8
0
  6
Continuous
 62
     7
370
    25
100
AcDbCircle
 10
22.4919890071
 20
67.5
 30
0.0
 40
4.5000000000021
100
AcDbArc
 50
61.0429863594
 51
116.7643771999
  0
LINE
  5
7E
330
1F
100
AcDbEntity
  8
0
  6
Continuous
 62
     7
370
    25
100
AcDbLine
 10
25.7649293058
 20
72.4905805476
 30
0.0
 11
24.6706788452
 21
71.4374243598
 31
0.0
  0
LINE
  5
7F
330
1F
100
AcDbEntity
  8
0
  6
Continuous
 62
     7
370
    25
100
AcDbLine
 10
25.3378165479
 20
72.9343592932
 30
0.0
 11
25.7649293058
 21
72.4905805476
 31
0.0
  0
ARC
  5
80
330
1F
100
AcDbEntity
  8
0
  6
Continuous
 62
     7
370
    25
100
AcDbCircle
 10
25.5179431861
 20
73.1077213254
 30
0.0
 40
0.2500000000000144
100
AcDbArc
 50
87.8073635593
 51
223.9036817796
  0
LINE
  5
81
330
1F
100
AcDbEntity
  8
0
  6
Continuous
 62
     7
370
    25
100
AcDbLine
 10
27.7073007258
 20
73.2740796527
 30
0.0
 11
25.5275080324
 21
73.3575382859
 31
0.0
  0
LINE
  5
82
330
1F
100
AcDbEntity
  8
0
  6
Continuous
 62
     7
370
    25
100
AcDbLine
 10
28.4613757392
 20
72.4905805476
 30
0.0
 11
27.7073007258
 21
73.2740796527
 31
0.0
  0
LINE
  5
83
330
1F
100
AcDbEntity
  8
0
  6
Continuous
 62
     7
370
    25
100
AcDbLine
 10
28.4613757392
 20
70.3091907315
 30
0.0
 11
28.4613757392
 21
72.4905805476
 31
0.0
  0
ARC
  5
84
330
1F
100
AcDbEntity
  8
0
  6
Continuous
 62
     7
370
    25
100
AcDbCircle
 10
28.2113757392
 20
70.3091907315
 30
0.0
 40
0.2500000000000068
100
AcDbArc
 50
223.9036817796
 51
0.0
  0
LINE
  5
85
330
1F
100
AcDbEntity
  8
0
  6
Continuous
 62
     7
370
    25
100
AcDbLine
 10
27.6041363431
 20
70.579607445
 30
0.0
 11
28.031249101
 21
70.1358286993
 31
0.0
  0
LINE
  5
86
330
1F
100
AcDbEntity
  8
0
  6
Continuous
 62
     7
370
    25
100
AcDbLine
 10
26.5098858826
 20
69.5264512572
 30
0.0
 11
27.6041363431
 21
70.579607445
 31
0.0
  0
ARC
  5
87
330
1F
100
AcDbEntity
  8
0
  6
Continuous
 62
     7
370
    25
100
AcDbCircle
 10
22.4919890071
 20
67.5
 30
0.0
 40
4.500000000000595
100
AcDbArc
 50
333.2356228001
 51
26.7643771999
  0
LINE
  5
88
330
1F
100
AcDbEntity
  8
0
  6
Continuous
 62
     7
370
    25
100
AcDbLine
 10
26.5098858826
 20
65.4735487428
 30
0.0
 11
27.6041363431
 21
64.420392555
 31
0.0
  0
LINE
  5
89
330
1F
100
AcDbEntity
  8
0
  6
Continuous
 62
     7
370
    25
100
AcDbLine
 10
27.6041363431
 20
64.420392555
 30
0.0
 11
28.031249101
 21
64.8641713007
 31
0.0
  0
ARC
  5
8A
330
1F
100
AcDbEntity
  8
0
  6
Continuous
 62
     7
370
    25
100
AcDbCircle
 10
28.2113757392
 20
64.6908092684
 30
0.0
 40
0.2499999999999995
100
AcDbArc
 50
0.0
 51
136.0963182204
  0
LINE
  5
8B
330
1F
100
AcDbEntity
  8
0
  6
Continuous
 62
     7
370
    25
100
AcDbLine
 10
28.4613757392
 20
64.6908092684
 30
0.0
 11
28.4613757392
 21
62.5094194524
 31
0.0
  0
LINE
  5
8C
330
1F
100
AcDbEntity
  8
0
  6
Continuous
 62
     7
370
    25
100
AcDbLine
 10
28.4613757392
 20
62.5094194524
 30
0.0
 11
27.7073007258
 21
61.7259203472
 31
0.0
  0
LINE
  5
8D
330
1F
100
AcDbEntity
  8
0
  6
Continuous
 62
     7
370
    25
100
AcDbLine
 10
27.7073007258
 20
61.7259203472
 30
0.0
 11
25.5275080324
 21
61.6424617141
 31
0.0
  0
ARC
  5
8E
330
1F
100
AcDbEntity
  8
0
  6
Continuous
 62
     7
370
    25
100
AcDbCircle
 10
25.5179431861
 20
61.8922786745
 30
0.0
 40
0.2500000000000046
100
AcDbArc
 50
136.0963182204
 51
272.1926364407
  0
LINE
  5
8F
330
1F
100
AcDbEntity
  8
0
  6
Continuous
 62
     7
370
    25
100
AcDbLine
 10
25.3378165479
 20
62.0656407067
 30
0.0
 11
25.7649293058
 21
62.5094194524
 31
0.0
  0
LINE
  5
90
330
1F
100
AcDbEntity
  8
0
  6
Continuous
 62
     7
370
    25
100
AcDbLine
 10
25.7649293058
 20
62.5094194524
 30
0.0
 11
24.6706788452
 21
63.5625756402
 31
0.0
  0
ARC
  5
91
330
1F
100
AcDbEntity
  8
0
  6
Continuous
 62
     7
370
    25
100
AcDbCircle
 10
22.4919890071
 20
67.5
 30
0.0
 40
4.500000000002101
100
AcDbArc
 50
243.2356228001
 51
298.9570136406
  0
LINE
  5
92
330
1F
100
AcDbEntity
  8
0
  6
Continuous
 62
     7
370
    25
100
AcDbLine
 10
20.4655377499
 20
63.4821031245
 30
0.0
 11
19.4123815621
 21
62.3878526639
 31
0.0
  0
LINE
  5
93
330
1F
100
AcDbEntity
  8
0
  6
Continuous
 62
     7
370
    25
100
AcDbLine
 10
19.4123815621
 20
62.3878526639
 30
0.0
 11
19.8561603078
 21
61.9607399061
 31
0.0
  0
ARC
  5
94
330
1F
100
AcDbEntity
  8
0
  6
Continuous
 62
     7
370
    25
100
AcDbCircle
 10
19.6827982756
 20
61.7806132679
 30
0.0
 40
0.25
100
AcDbArc
 50
270.0
 51
46.0963182204
  0
LINE
  5
95
330
1F
100
AcDbEntity
  8
0
  6
Continuous
 62
     7
370
    25
100
AcDbLine
 10
19.6827982756
 20
61.5306132679
 30
0.0
 11
17.5014084595
 21
61.5306132679
 31
0.0
  0
LINE
  5
96
330
1F
100
AcDbEntity
  8
0
  6
Continuous
 62
     7
370
    25
100
AcDbLine
 10
17.5014084595
 20
61.5306132679
 30
0.0
 11
16.7179093543
 21
62.2846882813
 31
0.0
  0
LINE
  5
97
330
1F
100
AcDbEntity
  8
0
  6
Continuous
 62
     7
370
    25
100
AcDbLine
 10
16.7179093543
 20
62.2846882813
 30
0.0
 11
16.6344507212
 21
64.4644809747
 31
0.0
  0
ARC
  5
98
330
1F
100
AcDbEntity
  8
0
  6
Continuous
 62
     7
370
    25
100
AcDbCircle
 10
16.8842676816
 20
64.474045821
 30
0.0
 40
0.2500000000000154
100
AcDbArc
 50
46.0963182204
 51
182.1926364407
  0
LINE
  5
99
330
1F
100
AcDbEntity
  8
0
  6
Continuous
 62
     7
370
    25
100
AcDbLine
 10
17.0576297139
 20
64.6541724592
 30
0.0
 11
17.5014084595
 21
64.2270597013
 31
0.0
  0
LINE
  5
9A
330
1F
100
AcDbEntity
  8
0
  6
Continuous
 62
     7
370
    25
100
AcDbLine
 10
17.5014084595
 20
64.2270597013
 30
0.0
 11
18.5545646473
 21
65.3213101618
 31
0.0
  0
LINE
  5
9B
330
1F
100
AcDbEntity
  8
0
  6
Continuous
 62
     7
370
    25
100
AcDbLine
 10
30.2041798886
 20
67.5
 30
0.0
 11
31.1995878346
 21
66.504592054
 31
0.0
  0
LINE
  5
9C
330
1F
100
AcDbEntity
  8
0
  6
Continuous
 62
     7
370
    25
100
AcDbLine
 10
30.2041798886
 20
67.5
 30
0.0
 11
31.1995878346
 21
68.495407946
 31
0.0
  0
LINE
  5
9D
330
1F
100
AcDbEntity
  8
0
  6
Continuous
 62
     7
370
    25
100
AcDbLine
 10
31.1995878346
 20
68.495407946
 30
0.0
 11
31.1995878346
 21
100.9389323595
 31
0.0
  0
ARC
  5
9E
330
1F
100
AcDbEntity
  8
0
  6
Continuous
 62
     7
370
    25
100
AcDbCircle
 10
34.0610676405
 20
100.9389323595
 30
0.0
 40
2.861479805857144
100
AcDbArc
 50
90.0
 51
180.0
  0
LINE
  5
9F
330
1F
100
AcDbEntity
  8
0
  6
Continuous
 62
     7
370
    25
100
AcDbLine
 10
66.504592054
 20
103.8004121653
 30
0.0
 11
34.0610676405
 21
103.8004121653
 31
0.0
  0
LINE
  5
A0
330
1F
100
AcDbEntity
  8
0
  6
Continuous
 62
     7
370
    25
100
AcDbLine
 10
67.5
 20
104.7958201113
 30
0.0
 11
66.504592054
 21
103.8004121653
 31
0.0
  0
LINE
  5
A1
330
1F
100
AcDbEntity
  8
0
  6
Continuous
 62
     7
370
    25
100
AcDbLine
 10
67.5
 20
104.7958201113
 30
0.0
 11
68.495407946
 21
103.8004121653
 31
0.0
  0
LINE
  5
A2
330
1F
100
AcDbEntity
  8
0
  6
Continuous
 62
     7
370
    25
100
AcDbLine
 10
68.495407946
 20
103.8004121653
 30
0.0
 11
100.9389323595
 21
103.8004121653
 31
0.0
  0
ARC
  5
A3
330
1F
100
AcDbEntity
  8
0
  6
Continuous
 62
     7
370
    25
100
AcDbCircle
 10
100.9389323595
 20
100.9389323595
 30
0.0
 40
2.861479805857144
100
AcDbArc
 50
360.0
 51
90.0
  0
LINE
  5
A4
330
1F
100
AcDbEntity
  8
0
  6
Continuous
 62
     7
370
    25
100
AcDbLine
 10
103.8004121653
 20
68.495407946
 30
0.0
 11
103.8004121653
 21
100.9389323595
 31
0.0
  0
LINE
  5
A5
330
1F
100
AcDbEntity
  8
0
  6
Continuous
 62
     7
370
    25
100
AcDbLine
 10
104.7958201113
 20
67.5
 30
0.0
 11
103.8004121653
 21
68.495407946
 31
0.0
  0
LINE
  5
A6
330
1F
100
AcDbEntity
  8
0
  6
Continuous
 62
     7
370
    25
100
AcDbLine
 10
104.7958201113
 20
67.5
 30
0.0
 11
103.8004121653
 21
66.504592054
 31
0.0
  0
LINE
  5
A7
330
1F
100
AcDbEntity
  8
0
  6
Continuous
 62
     7
370
    25
100
AcDbLine
 10
103.8004121653
 20
66.504592054
 30
0.0
 11
103.8004121653
 21
34.0610676405
 31
0.0
  0
ARC
  5
A8
330
1F
100
AcDbEntity
  8
0
  6
Continuous
 62
     7
370
    25
100
AcDbCircle
 10
100.9389323595
 20
34.0610676405
 30
0.0
 40
2.861479805857144
100
AcDbArc
 50
270.0
 51
0.0
  0
LINE
  5
A9
330
1F
100
AcDbEntity
  8
0
  6
Continuous
 62
     7
370
    25
100
AcDbLine
 10
68.495407946
 20
31.1995878346
 30
0.0
 11
100.9389323595
 21
31.1995878346
 31
0.0
  0
LINE
  5
AA
330
1F
100
AcDbEntity
  8
0
  6
Continuous
 62
     7
370
    25
100
AcDbLine
 10
67.5
 20
30.2041798886
 30
0.0
 11
68.495407946
 21
31.1995878346
 31
0.0
  0
LINE
  5
AB
330
1F
100
AcDbEntity
  8
0
  6
Continuous
 62
     7
370
    25
100
AcDbLine
 10
67.5
 20
30.2041798886
 30
0.0
 11
66.504592054
 21
31.1995878346
 31
0.0
  0
LINE
  5
AC
330
1F
100
AcDbEntity
  8
0
  6
Continuous
 62
     7
370
    25
100
AcDbLine
 10
66.504592054
 20
31.1995878346
 30
0.0
 11
34.0610676405
 21
31.1995878346
 31
0.0
  0
ARC
  5
AD
330
1F
100
AcDbEntity
  8
0
  6
Continuous
 62
     7
370
    25
100
AcDbCircle
 10
34.0610676405
 20
34.0610676405
 30
0.0
 40
2.861479805857147
100
AcDbArc
 50
180.0
 51
270.0
  0
LINE
  5
AE
330
1F
100
AcDbEntity
  8
0
  6
Continuous
 62
     7
370
    25
100
AcDbLine
 10
31.1995878346
 20
66.504592054
 30
0.0
 11
31.1995878346
 21
34.0610676405
 31
0.0
  0
LINE
  5
AF
330
1F
100
AcDbEntity
  8
0
  6
Continuous
 62
     7
370
    25
100
AcDbLine
 10
117.4985915404
 20
70.7729402986
 30
0.0
 11
116.4454353527
 21
69.6786898381
 31
0.0
  0
ARC
  5
B0
330
1F
100
AcDbEntity
  8
0
  6
Continuous
 62
     7
370
    25
100
AcDbCircle
 10
112.5080109929
 20
67.5
 30
0.0
 40
4.5000000000006
100
AcDbArc
 50
331.0429863594
 51
28.9570136405
  0
LINE
  5
B1
330
1F
100
AcDbEntity
  8
0
  6
Continuous
 62
     7
370
    25
100
AcDbLine
 10
117.4985915404
 20
64.2270597013
 30
0.0
 11
116.4454353527
 21
65.3213101619
 31
0.0
  0
LINE
  5
B2
330
1F
100
AcDbEntity
  8
0
  6
Continuous
 62
     7
370
    25
100
AcDbLine
 10
117.9423702861
 20
64.6541724592
 30
0.0
 11
117.4985915404
 21
64.2270597013
 31
0.0
  0
ARC
  5
B3
330
1F
100
AcDbEntity
  8
0
  6
Continuous
 62
     7
370
    25
100
AcDbCircle
 10
118.1157323183
 20
64.474045821
 30
0.0
 40
0.2500000000000321
100
AcDbArc
 50
357.8073635593
 51
133.9036817796
  0
LINE
  5
B4
330
1F
100
AcDbEntity
  8
0
  6
Continuous
 62
     7
370
    25
100
AcDbLine
 10
118.2820906456
 20
62.2846882813
 30
0.0
 11
118.3655492787
 21
64.4644809747
 31
0.0
  0
LINE
  5
B5
330
1F
100
AcDbEntity
  8
0
  6
Continuous
 62
     7
370
    25
100
AcDbLine
 10
117.4985915404
 20
61.5306132679
 30
0.0
 11
118.2820906456
 21
62.2846882813
 31
0.0
  0
LINE
  5
B6
330
1F
100
AcDbEntity
  8
0
  6
Continuous
 62
     7
370
    25
100
AcDbLine
 10
115.3172017244
 20
61.5306132679
 30
0.0
 11
117.4985915404
 21
61.5306132679
 31
0.0
  0
ARC
  5
B7
330
1F
100
AcDbEntity
  8
0
  6
Continuous
 62
     7
370
    25
100
AcDbCircle
 10
115.3172017244
 20
61.7806132679
 30
0.0
 40
0.2500000000000038
100
AcDbArc
 50
133.9036817797
 51
270.0
  0
LINE
  5
B8
330
1F
100
AcDbEntity
  8
0
  6
Continuous
 62
     7
370
    25
100
AcDbLine
 10
115.5876184378
 20
62.3878526639
 30
0.0
 11
115.1438396922
 21
61.9607399061
 31
0.0
  0
LINE
  5
B9
330
1F
100
AcDbEntity
  8
0
  6
Continuous
 62
     7
370
    25
100
AcDbLine
 10
114.5344622501
 20
63.4821031245
 30
0.0
 11
115.5876184378
 21
62.3878526639
 31
0.0
  0
ARC
  5
BA
330
1F
100
AcDbEntity
  8
0
  6
Continuous
 62
     7
370
    25
100
AcDbCircle
 10
112.5080109929
 20
67.5
 30
0.0
 40
4.500000000002102
100
AcDbArc
 50
241.0429863594
 51
296.7643771999
  0
LINE
  5
BB
330
1F
100
AcDbEntity
  8
0
  6
Continuous
 62
     7
370
    25
100
AcDbLine
 10
109.2350706942
 20
62.5094194524
 30
0.0
 11
110.3293211547
 21
63.5625756402
 31
0.0
  0
LINE
  5
BC
330
1F
100
AcDbEntity
  8
0
  6
Continuous
 62
     7
370
    25
100
AcDbLine
 10
109.662183452
 20
62.0656407067
 30
0.0
 11
109.2350706942
 21
62.5094194524
 31
0.0
  0
ARC
  5
BD
330
1F
100
AcDbEntity
  8
0
  6
Continuous
 62
     7
370
    25
100
AcDbCircle
 10
109.4820568139
 20
61.8922786745
 30
0.0
 40
0.2500000000000042
100
AcDbArc
 50
267.8073635593
 51
43.9036817796
  0
LINE
  5
BE
330
1F
100
AcDbEntity
  8
0
  6
Continuous
 62
     7
370
    25
100
AcDbLine
 10
107.2926992742
 20
61.7259203472
 30
0.0
 11
109.4724919676
 21
61.6424617141
 31
0.0
  0
LINE
  5
BF
330
1F
100
AcDbEntity
  8
0
  6
Continuous
 62
     7
370
    25
100
AcDbLine
 10
106.5386242608
 20
62.5094194524
 30
0.0
 11
107.2926992742
 21
61.7259203472
 31
0.0
  0
LINE
  5
C0
330
1F
100
AcDbEntity
  8
0
  6
Continuous
 62
     7
370
    25
100
AcDbLine
 10
106.5386242608
 20
64.6908092684
 30
0.0
 11
106.5386242608
 21
62.5094194524
 31
0.0
  0
ARC
  5
C1
330
1F
100
AcDbEntity
  8
0
  6
Continuous
 62
     7
370
    25
100
AcDbCircle
 10
106.7886242608
 20
64.6908092684
 30
0.0
 40
0.25
100
AcDbArc
 50
43.9036817796
 51
180.0
  0
LINE
  5
C2
330
1F
100
AcDbEntity
  8
0
  6
Continuous
 62
     7
370
    25
100
AcDbLine
 10
107.3958636568
 20
64.420392555
 30
0.0
 11
106.968750899
 21
64.8641713007
 31
0.0
  0
LINE
  5
C3
330
1F
100
AcDbEntity
  8
0
  6
Continuous
 62
     7
370
    25
100
AcDbLine
 10
108.4901141174
 20
65.4735487428
 30
0.0
 11
107.3958636568
 21
64.420392555
 31
0.0
  0
ARC
  5
C4
330
1F
100
AcDbEntity
  8
0
  6
Continuous
 62
     7
370
    25
100
AcDbCircle
 10
112.5080109929
 20
67.5
 30
0.0
 40
4.500000000000603
100
AcDbArc
 50
153.2356228002
 51
206.7643771999
  0
LINE
  5
C5
330
1F
100
AcDbEntity
  8
0
  6
Continuous
 62
     7
370
    25
100
AcDbLine
 10
108.4901141174
 20
69.5264512572
 30
0.0
 11
107.3958636568
 21
70.579607445
 31
0.0
  0
LINE
  5
C6
330
1F
100
AcDbEntity
  8
0
  6
Continuous
 62
     7
370
    25
100
AcDbLine
 10
107.3958636568
 20
70.579607445
 30
0.0
 11
106.968750899
 21
70.1358286993
 31
0.0
  0
ARC
  5
C7
330
1F
100
AcDbEntity
  8
0
  6
Continuous
 62
     7
370
    25
100
AcDbCircle
 10
106.7886242608
 20
70.3091907315
 30
0.0
 40
0.25
100
AcDbArc
 50
180.0
 51
316.0963182204
  0
LINE
  5
C8
330
1F
100
AcDbEntity
  8
0
  6
Continuous
 62
     7
370
    25
100
AcDbLine
 10
106.5386242608
 20
70.3091907315
 30
0.0
 11
106.5386242608
 21
72.4905805476
 31
0.0
  0
LINE
  5
C9
330
1F
100
AcDbEntity
  8
0
  6
Continuous
 62
     7
370
    25
100
AcDbLine
 10
106.5386242608
 20
72.4905805476
 30
0.0
 11
107.2926992742
 21
73.2740796527
 31
0.0
  0
LINE
  5
CA
330
1F
100
AcDbEntity
  8
0
  6
Continuous
 62
     7
370
    25
100
AcDbLine
 10
107.2926992742
 20
73.2740796527
 30
0.0
 11
109.4724919676
 21
73.3575382859
 31
0.0
  0
ARC
  5
CB
330
1F
100
AcDbEntity
  8
0
  6
Continuous
 62
     7
370
    25
100
AcDbCircle
 10
109.4820568139
 20
73.1077213254
 30
0.0
 40
0.2500000000000042
100
AcDbArc
 50
316.0963182204
 51
92.1926364407
  0
LINE
  5
CC
330
1F
100
AcDbEntity
  8
0
  6
Continuous
 62
     7
370
    25
100
AcDbLine
 10
109.662183452
 20
72.9343592932
 30
0.0
 11
109.2350706942
 21
72.4905805476
 31
0.0
  0
LINE
  5
CD
330
1F
100
AcDbEntity
  8
0
  6
Continuous
 62
     7
370
    25
100
AcDbLine
 10
109.2350706942
 20
72.4905805476
 30
0.0
 11
110.3293211547
 21
71.4374243598
 31
0.0
  0
ARC
  5
CE
330
1F
100
AcDbEntity
  8
0
  6
Continuous
 62
     7
370
    25
100
AcDbCircle
 10
112.5080109929
 20
67.5
 30
0.0
 40
4.500000000002097
100
AcDbArc
 50
63.2356228001
 51
118.9570136406
  0
LINE
  5
CF
330
1F
100
AcDbEntity
  8
0
  6
Continuous
 62
     7
370
    25
100
AcDbLine
 10
114.5344622501
 20
71.5178968755
 30
0.0
 11
115.5876184378
 21
72.612147336
 31
0.0
  0
LINE
  5
D0
330
1F
100
AcDbEntity
  8
0
  6
Continuous
 62
     7
370
    25
100
AcDbLine
 10
115.5876184378
 20
72.612147336
 30
0.0
 11
115.1438396922
 21
73.0392600939
 31
0.0
  0
ARC
  5
D1
330
1F
100
AcDbEntity
  8
0
  6
Continuous
 62
     7
370
    25
100
AcDbCircle
 10
115.3172017244
 20
73.2193867321
 30
0.0
 40
0.2500000000000042
100
AcDbArc
 50
90.0
 51
226.0963182204
  0
LINE
  5
D2
330
1F
100
AcDbEntity
  8
0
  6
Continuous
 62
     7
370
    25
100
AcDbLine
 10
115.3172017244
 20
73.4693867321
 30
0.0
 11
117.4985915404
 21
73.4693867321
 31
0.0
  0
LINE
  5
D3
330
1F
100
AcDbEntity
  8
0
  6
Continuous
 62
     7
370
    25
100
AcDbLine
 10
117.4985915404
 20
73.4693867321
 30
0.0
 11
118.2820906456
 21
72.7153117186
 31
0.0
  0
LINE
  5
D4
330
1F
100
AcDbEntity
  8
0
  6
Continuous
 62
     7
370
    25
100
AcDbLine
 10
118.2820906456
 20
72.7153117186
 30
0.0
 11
118.3655492787
 21
70.5355190253
 31
0.0
  0
ARC
  5
D5
330
1F
100
AcDbEntity
  8
0
  6
Continuous
 62
     7
370
    25
100
AcDbCircle
 10
118.1157323183
 20
70.525954179
 30
0.0
 40
0.2500000000000321
100
AcDbArc
 50
226.0963182204
 51
2.1926364407
  0
LINE
  5
D6
330
1F
100
AcDbEntity
  8
0
  6
Continuous
 62
     7
370
    25
100
AcDbLine
 10
117.9423702861
 20
70.3458275408
 30
0.0
 11
117.4985915404
 21
70.7729402986
 31
0.0
  0
LINE
  5
D7
330
1F
100
AcDbEntity
  8
0
  6
Continuous
 62
     7
370
    25
100
AcDbLine
 10
67.5
 20
14.511374402
 30
0.0
 11
66.6985274945
 21
13.7099018966
 31
0.0
  0
LINE
  5
D8
330
1F
100
AcDbEntity
  8
0
  6
Continuous
 62
     7
370
    25
100
AcDbLine
 10
67.5
 20
14.511374402
 30
0.0
 11
68.3014725054
 21
13.7099018966
 31
0.0
  0
LINE
  5
D9
330
1F
100
AcDbEntity
  8
0
  6
Continuous
 62
     7
370
    25
100
AcDbLine
 10
68.3014725054
 20
13.7099018966
 30
0.0
 11
74.261897324
 21
13.7099018966
 31
0.0
  0
LINE
  5
DA
330
1F
100
AcDbEntity
  8
0
  6
Continuous
 62
     7
370
    25
100
AcDbLine
 10
74.261897324
 20
13.7099018966
 30
0.0
 11
78.0528098258
 21
9.9189893948
 31
0.0
  0
LINE
  5
DB
330
1F
100
AcDbEntity
  8
0
  6
Continuous
 62
     7
370
    25
100
AcDbLine
 10
78.0528098258
 20
9.9189893948
 30
0.0
 11
78.0528098258
 21
3.9882841722
 31
0.0
  0
LINE
  5
DC
330
1F
100
AcDbEntity
  8
0
  6
Continuous
 62
     7
370
    25
100
AcDbLine
 10
78.0528098258
 20
3.9882841722
 30
0.0
 11
75.2585131118
 21
3.9882841722
 31
0.0
  0
LINE
  5
DD
330
1F
100
AcDbEntity
  8
0
  6
Continuous
 62
     7
370
    25
100
AcDbLine
 10
75.2585131118
 20
3.9882841722
 30
0.0
 11
75.2585131118
 21
5.9228912897
 31
0.0
  0
LINE
  5
DE
330
1F
100
AcDbEntity
  8
0
  6
Continuous
 62
     7
370
    25
100
AcDbLine
 10
75.2585131118
 20
5.9228912897
 30
0.0
 11
72.5617880391
 21
5.9228912897
 31
0.0
  0
LINE
  5
DF
330
1F
100
AcDbEntity
  8
0
  6
Continuous
 62
     7
370
    25
100
AcDbLine
 10
72.5617880391
 20
5.9228912897
 30
0.0
 11
72.5617880391
 21
1.4088080156
 31
0.0
  0
LINE
  5
E0
330
1F
100
AcDbEntity
  8
0
  6
Continuous
 62
     7
370
    25
100
AcDbLine
 10
72.5617880391
 20
1.4088080156
 30
0.0
 11
73.5877160559
 21
1.4088080156
 31
0.0
  0
LINE
  5
E1
330
1F
100
AcDbEntity
  8
0
  6
Continuous
 62
     7
370
    25
100
AcDbLine
 10
73.5877160559
 20
1.4088080156
 30
0.0
 11
73.5877160559
 21
-0.0000000001
 31
0.0
  0
LINE
  5
E2
330
1F
100
AcDbEntity
  8
0
  6
Continuous
 62
     7
370
    25
100
AcDbLine
 10
73.5877160559
 20
-0.0000000001
 30
0.0
 11
81.9915321252
 21
-0.0000000001
 31
0.0
  0
LINE
  5
E3
330
1F
100
AcDbEntity
  8
0
  6
Continuous
 62
     7
370
    25
100
AcDbLine
 10
81.9915321252
 20
-0.0000000001
 30
0.0
 11
81.9915321252
 21
0.5786345202
 31
0.0
  0
LINE
  5
E4
330
1F
100
AcDbEntity
  8
0
  6
Continuous
 62
     7
370
    25
100
AcDbLine
 10
81.9915321252
 20
0.5786345202
 30
0.0
 11
98.0492450949
 21
0.5786345202
 31
0.0
  0
LINE
  5
E5
330
1F
100
AcDbEntity
  8
0
  6
Continuous
 62
     7
370
    25
100
AcDbLine
 10
98.0501897145
 20
0.0134190515
 30
0.0
 11
98.0492450949
 21
0.5786345202
 31
0.0
  0
LINE
  5
E6
330
1F
100
AcDbEntity
  8
0
  6
Continuous
 62
     7
370
    25
100
AcDbLine
 10
106.4539940475
 20
0.0274639568
 30
0.0
 11
98.0501897145
 21
0.0134190515
 31
0.0
  0
LINE
  5
E7
330
1F
100
AcDbEntity
  8
0
  6
Continuous
 62
     7
370
    25
100
AcDbLine
 10
106.4516395724
 20
1.4362700049
 30
0.0
 11
106.4539940475
 21
0.0274639568
 31
0.0
  0
LINE
  5
E8
330
1F
100
AcDbEntity
  8
0
  6
Continuous
 62
     7
370
    25
100
AcDbLine
 10
107.4775661565
 20
1.4379845905
 30
0.0
 11
106.4516395724
 21
1.4362700049
 31
0.0
  0
LINE
  5
E9
330
1F
100
AcDbEntity
  8
0
  6
Continuous
 62
     7
370
    25
100
AcDbLine
 10
107.47002198
 20
5.9520615605
 30
0.0
 11
107.4775661565
 21
1.4379845905
 31
0.0
  0
LINE
  5
EA
330
1F
100
AcDbEntity
  8
0
  6
Continuous
 62
     7
370
    25
100
AcDbLine
 10
104.7733006733
 20
5.9475546499
 30
0.0
 11
107.47002198
 21
5.9520615605
 31
0.0
  0
LINE
  5
EB
330
1F
100
AcDbEntity
  8
0
  6
Continuous
 62
     7
370
    25
100
AcDbLine
 10
104.7765338918
 20
4.0129502342
 30
0.0
 11
104.7733006733
 21
5.9475546499
 31
0.0
  0
LINE
  5
EC
330
1F
100
AcDbEntity
  8
0
  6
Continuous
 62
     7
370
    25
100
AcDbLine
 10
101.9822410802
 20
4.0082802566
 30
0.0
 11
104.7765338918
 21
4.0129502342
 31
0.0
  0
LINE
  5
ED
330
1F
100
AcDbEntity
  8
0
  6
Continuous
 62
     7
370
    25
100
AcDbLine
 10
101.9723293695
 20
9.9389771967
 30
0.0
 11
101.9822410802
 21
4.0082802566
 31
0.0
  0
LINE
  5
EE
330
1F
100
AcDbEntity
  8
0
  6
Continuous
 62
     7
370
    25
100
AcDbLine
 10
105.7569010021
 20
13.7362199793
 30
0.0
 11
101.9723293695
 21
9.9389771967
 31
0.0
  0
LINE
  5
EF
330
1F
100
AcDbEntity
  8
0
  6
Continuous
 62
     7
370
    25
100
AcDbLine
 10
111.7173174968
 20
13.7461813589
 30
0.0
 11
105.7569010021
 21
13.7362199793
 31
0.0
  0
LINE
  5
F0
330
1F
100
AcDbEntity
  8
0
  6
Continuous
 62
     7
370
    25
100
AcDbLine
 10
112.5174494193
 20
14.5489922086
 30
0.0
 11
111.7173174968
 21
13.7461813589
 31
0.0
  0
LINE
  5
F1
330
1F
100
AcDbEntity
  8
0
  6
Continuous
 62
     7
370
    25
100
AcDbLine
 10
112.5174494193
 20
14.5489922086
 30
0.0
 11
113.3229481655
 21
13.7461813589
 31
0.0
  0
LINE
  5
F2
330
1F
100
AcDbEntity
  8
0
  6
Continuous
 62
     7
370
    25
100
AcDbLine
 10
113.3229481655
 20
13.7461813589
 30
0.0
 11
118.8780288001
 21
13.7461813589
 31
0.0
  0
LINE
  5
F3
330
1F
100
AcDbEntity
  8
0
  6
Continuous
 62
     7
370
    25
100
AcDbLine
 10
118.8780288001
 20
13.7461813589
 30
0.0
 11
122.6979798885
 21
9.9389771967
 31
0.0
  0
LINE
  5
F4
330
1F
100
AcDbEntity
  8
0
  6
Continuous
 62
     7
370
    25
100
AcDbLine
 10
122.6979798885
 20
9.9389771967
 30
0.0
 11
122.6979798885
 21
4.0129502342
 31
0.0
  0
LINE
  5
F5
330
1F
100
AcDbEntity
  8
0
  6
Continuous
 62
     7
370
    25
100
AcDbLine
 10
122.6979798885
 20
4.0129502342
 30
0.0
 11
120.1594379818
 21
4.0129502342
 31
0.0
  0
LINE
  5
F6
330
1F
100
AcDbEntity
  8
0
  6
Continuous
 62
     7
370
    25
100
AcDbLine
 10
120.1594379818
 20
4.0129502342
 30
0.0
 11
120.1594379818
 21
5.9520615605
 31
0.0
  0
LINE
  5
F7
330
1F
100
AcDbEntity
  8
0
  6
Continuous
 62
     7
370
    25
100
AcDbLine
 10
120.1594379818
 20
5.9520615605
 30
0.0
 11
117.5046617262
 21
5.9520615605
 31
0.0
  0
LINE
  5
F8
330
1F
100
AcDbEntity
  8
0
  6
Continuous
 62
     7
370
    25
100
AcDbLine
 10
117.5046617262
 20
5.9520615605
 30
0.0
 11
117.5046617262
 21
1.4379845905
 31
0.0
  0
LINE
  5
F9
330
1F
100
AcDbEntity
  8
0
  6
Continuous
 62
     7
370
    25
100
AcDbLine
 10
117.5046617262
 20
1.4379845905
 30
0.0
 11
118.3667150177
 21
1.4379845905
 31
0.0
  0
LINE
  5
FA
330
1F
100
AcDbEntity
  8
0
  6
Continuous
 62
     7
370
    25
100
AcDbLine
 10
118.3667150177
 20
1.4379845905
 30
0.0
 11
118.3667150177
 21
-0.0000000001
 31
0.0
  0
LINE
  5
FB
330
1F
100
AcDbEntity
  8
0
  6
Continuous
 62
     7
370
    25
100
AcDbLine
 10
132.5
 20
-0.0000000001
 30
0.0
 11
118.3667150177
 21
-0.0000000001
 31
0.0
  0
ARC
  5
FC
330
1F
100
AcDbEntity
  8
0
  6
Continuous
 62
     7
370
    25
100
AcDbCircle
 10
132.5
 20
2.4999999999
 30
0.0
 40
2.5
100
AcDbArc
 50
270.0
 51
0.0
  0
LINE
  5
FD
330
1F
100
AcDbEntity
  8
0
  6
Continuous
 62
     7
370
    25
100
AcDbLine
 10
135.0
 20
16.6332849822
 30
0.0
 11
135.0
 21
2.4999999999
 31
0.0
  0
LINE
  5
FE
330
1F
100
AcDbEntity
  8
0
  6
Continuous
 62
     7
370
    25
100
AcDbLine
 10
133.5620154094
 20
16.6332849822
 30
0.0
 11
135.0
 21
16.6332849822
 31
0.0
  0
LINE
  5
FF
330
1F
100
AcDbEntity
  8
0
  6
Continuous
 62
     7
370
    25
100
AcDbLine
 10
133.5620154094
 20
17.4953382737
 30
0.0
 11
133.5620154094
 21
16.6332849822
 31
0.0
  0
LINE
  5
100
330
1F
100
AcDbEntity
  8
0
  6
Continuous
 62
     7
370
    25
100
AcDbLine
 10
129.0479384394
 20
17.4953382737
 30
0.0
 11
133.5620154094
 21
17.4953382737
 31
0.0
  0
LINE
  5
101
330
1F
100
AcDbEntity
  8
0
  6
Continuous
 62
     7
370
    25
100
AcDbLine
 10
129.0479384394
 20
14.8405620181
 30
0.0
 11
129.0479384394
 21
17.4953382737
 31
0.0
  0
LINE
  5
102
330
1F
100
AcDbEntity
  8
0
  6
Continuous
 62
     7
370
    25
100
AcDbLine
 10
130.9870497658
 20
14.8405620181
 30
0.0
 11
129.0479384394
 21
14.8405620181
 31
0.0
  0
LINE
  5
103
330
1F
100
AcDbEntity
  8
0
  6
Continuous
 62
     7
370
    25
100
AcDbLine
 10
130.9870497658
 20
12.3020201115
 30
0.0
 11
130.9870497658
 21
14.8405620181
 31
0.0
  0
LINE
  5
104
330
1F
100
AcDbEntity
  8
0
  6
Continuous
 62
     7
370
    25
100
AcDbLine
 10
125.0610228033
 20
12.3020201115
 30
0.0
 11
130.9870497658
 21
12.3020201115
 31
0.0
  0
LINE
  5
105
330
1F
100
AcDbEntity
  8
0
  6
Continuous
 62
     7
370
    25
100
AcDbLine
 10
121.2538186411
 20
16.1219711998
 30
0.0
 11
125.0610228033
 21
12.3020201115
 31
0.0
  0
LINE
  5
106
330
1F
100
AcDbEntity
  8
0
  6
Continuous
 62
     7
370
    25
100
AcDbLine
 10
121.2538186411
 20
21.6770518345
 30
0.0
 11
121.2538186411
 21
16.1219711998
 31
0.0
  0
LINE
  5
107
330
1F
100
AcDbEntity
  8
0
  6
Continuous
 62
     7
370
    25
100
AcDbLine
 10
120.4510077914
 20
22.4825505806
 30
0.0
 11
121.2538186411
 21
21.6770518345
 31
0.0
  0
LINE
  5
108
330
1F
100
AcDbEntity
  8
0
  6
Continuous
 62
     7
370
    25
100
AcDbLine
 10
120.4510077914
 20
22.4825505806
 30
0.0
 11
121.2538186411
 21
23.2826825032
 31
0.0
  0
LINE
  5
109
330
1F
100
AcDbEntity
  8
0
  6
Continuous
 62
     7
370
    25
100
AcDbLine
 10
121.2538186411
 20
23.2826825032
 30
0.0
 11
121.2637800207
 21
29.2430989978
 31
0.0
  0
LINE
  5
10A
330
1F
100
AcDbEntity
  8
0
  6
Continuous
 62
     7
370
    25
100
AcDbLine
 10
121.2637800207
 20
29.2430989978
 30
0.0
 11
125.0610228033
 21
33.0276706304
 31
0.0
  0
LINE
  5
10B
330
1F
100
AcDbEntity
  8
0
  6
Continuous
 62
     7
370
    25
100
AcDbLine
 10
125.0610228033
 20
33.0276706304
 30
0.0
 11
130.9917197434
 21
33.0177589198
 31
0.0
  0
LINE
  5
10C
330
1F
100
AcDbEntity
  8
0
  6
Continuous
 62
     7
370
    25
100
AcDbLine
 10
130.9917197434
 20
33.0177589198
 30
0.0
 11
130.9870497658
 21
30.2234661082
 31
0.0
  0
LINE
  5
10D
330
1F
100
AcDbEntity
  8
0
  6
Continuous
 62
     7
370
    25
100
AcDbLine
 10
130.9870497658
 20
30.2234661082
 30
0.0
 11
129.0524453501
 21
30.2266993267
 31
0.0
  0
LINE
  5
10E
330
1F
100
AcDbEntity
  8
0
  6
Continuous
 62
     7
370
    25
100
AcDbLine
 10
129.0524453501
 20
30.2266993267
 30
0.0
 11
129.0479384394
 21
27.52997802
 31
0.0
  0
LINE
  5
10F
330
1F
100
AcDbEntity
  8
0
  6
Continuous
 62
     7
370
    25
100
AcDbLine
 10
129.0479384394
 20
27.52997802
 30
0.0
 11
133.5620154094
 21
27.5224338435
 31
0.0
  0
LINE
  5
110
330
1F
100
AcDbEntity
  8
0
  6
Continuous
 62
     7
370
    25
100
AcDbLine
 10
133.5620154094
 20
27.5224338435
 30
0.0
 11
133.563729995
 21
28.5483604275
 31
0.0
  0
LINE
  5
111
330
1F
100
AcDbEntity
  8
0
  6
Continuous
 62
     7
370
    25
100
AcDbLine
 10
133.563729995
 20
28.5483604275
 30
0.0
 11
135.0
 21
28.5459600532
 31
0.0
  0
LINE
  5
112
330
1F
100
AcDbEntity
  8
0
  6
Continuous
 62
     7
370
    25
100
AcDbLine
 10
135.0
 20
28.5459600532
 30
0.0
 11
135.0
 21
36.9498220211
 31
0.0
  0
LINE
  5
113
330
1F
100
AcDbEntity
  8
0
  6
Continuous
 62
     7
370
    25
100
AcDbLine
 10
135.0
 20
36.9498220211
 30
0.0
 11
134.4213654798
 21
36.9498220211
 31
0.0
  0
LINE
  5
114
330
1F
100
AcDbEntity
  8
0
  6
Continuous
 62
     7
370
    25
100
AcDbLine
 10
134.4213654798
 20
53.0084678748
 30
0.0
 11
134.4213654798
 21
36.9498220211
 31
0.0
  0
LINE
  5
115
330
1F
100
AcDbEntity
  8
0
  6
Continuous
 62
     7
370
    25
100
AcDbLine
 10
135.0
 20
53.0084678748
 30
0.0
 11
134.4213654798
 21
53.0084678748
 31
0.0
  0
LINE
  5
116
330
1F
100
AcDbEntity
  8
0
  6
Continuous
 62
     7
370
    25
100
AcDbLine
 10
135.0
 20
61.4122839441
 30
0.0
 11
135.0
 21
53.0084678748
 31
0.0
  0
LINE
  5
117
330
1F
100
AcDbEntity
  8
0
  6
Continuous
 62
     7
370
    25
100
AcDbLine
 10
133.5911919844
 20
61.4122839441
 30
0.0
 11
135.0
 21
61.4122839441
 31
0.0
  0
LINE
  5
118
330
1F
100
AcDbEntity
  8
0
  6
Continuous
 62
     7
370
    25
100
AcDbLine
 10
133.5911919844
 20
62.4382119609
 30
0.0
 11
133.5911919844
 21
61.4122839441
 31
0.0
  0
LINE
  5
119
330
1F
100
AcDbEntity
  8
0
  6
Continuous
 62
     7
370
    25
100
AcDbLine
 10
129.0771087103
 20
62.4382119609
 30
0.0
 11
133.5911919844
 21
62.4382119609
 31
0.0
  0
LINE
  5
11A
330
1F
100
AcDbEntity
  8
0
  6
Continuous
 62
     7
370
    25
100
AcDbLine
 10
129.0771087103
 20
59.7414868881
 30
0.0
 11
129.0771087103
 21
62.4382119609
 31
0.0
  0
LINE
  5
11B
330
1F
100
AcDbEntity
  8
0
  6
Continuous
 62
     7
370
    25
100
AcDbLine
 10
131.0117158277
 20
59.7414868881
 30
0.0
 11
129.0771087103
 21
59.7414868881
 31
0.0
  0
LINE
  5
11C
330
1F
100
AcDbEntity
  8
0
  6
Continuous
 62
     7
370
    25
100
AcDbLine
 10
131.0117158277
 20
56.9471901741
 30
0.0
 11
131.0117158277
 21
59.7414868881
 31
0.0
  0
LINE
  5
11D
330
1F
100
AcDbEntity
  8
0
  6
Continuous
 62
     7
370
    25
100
AcDbLine
 10
125.0810106051
 20
56.9471901741
 30
0.0
 11
131.0117158277
 21
56.9471901741
 31
0.0
  0
LINE
  5
11E
330
1F
100
AcDbEntity
  8
0
  6
Continuous
 62
     7
370
    25
100
AcDbLine
 10
121.2900981034
 20
60.7381026759
 30
0.0
 11
125.0810106051
 21
56.9471901741
 31
0.0
  0
LINE
  5
11F
330
1F
100
AcDbEntity
  8
0
  6
Continuous
 62
     7
370
    25
100
AcDbLine
 10
121.2900981034
 20
66.6985274945
 30
0.0
 11
121.2900981034
 21
60.7381026759
 31
0.0
  0
LINE
  5
120
330
1F
100
AcDbEntity
  8
0
  6
Continuous
 62
     7
370
    25
100
AcDbLine
 10
120.4886255979
 20
67.5
 30
0.0
 11
121.2900981034
 21
66.6985274945
 31
0.0
  0
LINE
  5
121
330
1F
100
AcDbEntity
  8
0
  6
Continuous
 62
     7
370
    25
100
AcDbLine
 10
120.4886255979
 20
67.5
 30
0.0
 11
121.2900981034
 21
68.3014725054
 31
0.0
  0
LINE
  5
122
330
1F
100
AcDbEntity
  8
0
  6
Continuous
 62
     7
370
    25
100
AcDbLine
 10
121.2900981034
 20
68.3014725054
 30
0.0
 11
121.2900981034
 21
74.261897324
 31
0.0
  0
LINE
  5
123
330
1F
100
AcDbEntity
  8
0
  6
Continuous
 62
     7
370
    25
100
AcDbLine
 10
121.2900981034
 20
74.261897324
 30
0.0
 11
125.0810106051
 21
78.0528098258
 31
0.0
  0
LINE
  5
124
330
1F
100
AcDbEntity
  8
0
  6
Continuous
 62
     7
370
    25
100
AcDbLine
 10
125.0810106051
 20
78.0528098258
 30
0.0
 11
131.0117158277
 21
78.0528098258
 31
0.0
  0
LINE
  5
125
330
1F
100
AcDbEntity
  8
0
  6
Continuous
 62
     7
370
    25
100
AcDbLine
 10
131.0117158277
 20
78.0528098258
 30
0.0
 11
131.0117158277
 21
75.2585131118
 31
0.0
  0
LINE
  5
126
330
1F
100
AcDbEntity
  8
0
  6
Continuous
 62
     7
370
    25
100
AcDbLine
 10
131.0117158277
 20
75.2585131118
 30
0.0
 11
129.0771087103
 21
75.2585131118
 31
0.0
  0
LINE
  5
127
330
1F
100
AcDbEntity
  8
0
  6
Continuous
 62
     7
370
    25
100
AcDbLine
 10
129.0771087103
 20
75.2585131118
 30
0.0
 11
129.0771087103
 21
72.5617880391
 31
0.0
  0
LINE
  5
128
330
1F
100
AcDbEntity
  8
0
  6
Continuous
 62
     7
370
    25
100
AcDbLine
 10
129.0771087103
 20
72.5617880391
 30
0.0
 11
133.5911919844
 21
72.5617880391
 31
0.0
  0
LINE
  5
129
330
1F
100
AcDbEntity
  8
0
  6
Continuous
 62
     7
370
    25
100
AcDbLine
 10
133.5911919844
 20
72.5617880391
 30
0.0
 11
133.5911919844
 21
73.5877160559
 31
0.0
  0
LINE
  5
12A
330
1F
100
AcDbEntity
  8
0
  6
Continuous
 62
     7
370
    25
100
AcDbLine
 10
133.5911919844
 20
73.5877160559
 30
0.0
 11
135.0
 21
73.5877160559
 31
0.0
  0
LINE
  5
12B
330
1F
100
AcDbEntity
  8
0
  6
Continuous
 62
     7
370
    25
100
AcDbLine
 10
135.0
 20
73.5877160559
 30
0.0
 11
135.0
 21
81.9915321252
 31
0.0
  0
LINE
  5
12C
330
1F
100
AcDbEntity
  8
0
  6
Continuous
 62
     7
370
    25
100
AcDbLine
 10
135.0
 20
81.9915321252
 30
0.0
 11
134.4213654798
 21
81.9915321252
 31
0.0
  0
LINE
  5
12D
330
1F
100
AcDbEntity
  8
0
  6
Continuous
 62
     7
370
    25
100
AcDbLine
 10
134.4213654798
 20
81.9915321252
 30
0.0
 11
134.4213654798
 21
98.0501779788
 31
0.0
  0
LINE
  5
12E
330
1F
100
AcDbEntity
  8
0
  6
Continuous
 62
     7
370
    25
100
AcDbLine
 10
135.0
 20
98.0501779788
 30
0.0
 11
134.4213654798
 21
98.0501779788
 31
0.0
  0
LINE
  5
12F
330
1F
100
AcDbEntity
  8
0
  6
Continuous
 62
     7
370
    25
100
AcDbLine
 10
135.0
 20
106.4540399467
 30
0.0
 11
135.0
 21
98.0501779788
 31
0.0
  0
LINE
  5
130
330
1F
100
AcDbEntity
  8
0
  6
Continuous
 62
     7
370
    25
100
AcDbLine
 10
133.563729995
 20
106.4516395724
 30
0.0
 11
135.0
 21
106.4540399467
 31
0.0
  0
LINE
  5
131
330
1F
100
AcDbEntity
  8
0
  6
Continuous
 62
     7
370
    25
100
AcDbLine
 10
133.5620154094
 20
107.4775661565
 30
0.0
 11
133.563729995
 21
106.4516395724
 31
0.0
  0
LINE
  5
132
330
1F
100
AcDbEntity
  8
0
  6
Continuous
 62
     7
370
    25
100
AcDbLine
 10
129.0479384394
 20
107.47002198
 30
0.0
 11
133.5620154094
 21
107.4775661565
 31
0.0
  0
LINE
  5
133
330
1F
100
AcDbEntity
  8
0
  6
Continuous
 62
     7
370
    25
100
AcDbLine
 10
129.0524453501
 20
104.7733006733
 30
0.0
 11
129.0479384394
 21
107.47002198
 31
0.0
  0
LINE
  5
134
330
1F
100
AcDbEntity
  8
0
  6
Continuous
 62
     7
370
    25
100
AcDbLine
 10
130.9870497658
 20
104.7765338918
 30
0.0
 11
129.0524453501
 21
104.7733006733
 31
0.0
  0
LINE
  5
135
330
1F
100
AcDbEntity
  8
0
  6
Continuous
 62
     7
370
    25
100
AcDbLine
 10
130.9917197434
 20
101.9822410802
 30
0.0
 11
130.9870497658
 21
104.7765338918
 31
0.0
  0
LINE
  5
136
330
1F
100
AcDbEntity
  8
0
  6
Continuous
 62
     7
370
    25
100
AcDbLine
 10
125.0610228033
 20
101.9723293695
 30
0.0
 11
130.9917197434
 21
101.9822410802
 31
0.0
  0
LINE
  5
137
330
1F
100
AcDbEntity
  8
0
  6
Continuous
 62
     7
370
    25
100
AcDbLine
 10
121.2637800207
 20
105.7569010021
 30
0.0
 11
125.0610228033
 21
101.9723293695
 31
0.0
  0
LINE
  5
138
330
1F
100
AcDbEntity
  8
0
  6
Continuous
 62
     7
370
    25
100
AcDbLine
 10
121.2538186411
 20
111.7173174968
 30
0.0
 11
121.2637800207
 21
105.7569010021
 31
0.0
  0
LINE
  5
139
330
1F
100
AcDbEntity
  8
0
  6
Continuous
 62
     7
370
    25
100
AcDbLine
 10
120.4510077914
 20
112.5174494193
 30
0.0
 11
121.2538186411
 21
111.7173174968
 31
0.0
  0
LINE
  5
13A
330
1F
100
AcDbEntity
  8
0
  6
Continuous
 62
     7
370
    25
100
AcDbLine
 10
120.4510077914
 20
112.5174494193
 30
0.0
 11
121.2538186411
 21
113.3229481655
 31
0.0
  0
LINE
  5
13B
330
1F
100
AcDbEntity
  8
0
  6
Continuous
 62
     7
370
    25
100
AcDbLine
 10
121.2538186411
 20
113.3229481655
 30
0.0
 11
121.2538186411
 21
118.8780288001
 31
0.0
  0
LINE
  5
13C
330
1F
100
AcDbEntity
  8
0
  6
Continuous
 62
     7
370
    25
100
AcDbLine
 10
121.2538186411
 20
118.8780288001
 30
0.0
 11
125.0610228033
 21
122.6979798884
 31
0.0
  0
LINE
  5
13D
330
1F
100
AcDbEntity
  8
0
  6
Continuous
 62
     7
370
    25
100
AcDbLine
 10
125.0610228033
 20
122.6979798884
 30
0.0
 11
130.9870497658
 21
122.6979798884
 31
0.0
  0
LINE
  5
13E
330
1F
100
AcDbEntity
  8
0
  6
Continuous
 62
     7
370
    25
100
AcDbLine
 10
130.9870497658
 20
122.6979798884
 30
0.0
 11
130.9870497658
 21
120.1594379818
 31
0.0
  0
LINE
  5
13F
330
1F
100
AcDbEntity
  8
0
  6
Continuous
 62
     7
370
    25
100
AcDbLine
 10
130.9870497658
 20
120.1594379818
 30
0.0
 11
129.0479384394
 21
120.1594379818
 31
0.0
  0
LINE
  5
140
330
1F
100
AcDbEntity
  8
0
  6
Continuous
 62
     7
370
    25
100
AcDbLine
 10
129.0479384394
 20
120.1594379818
 30
0.0
 11
129.0479384394
 21
117.5046617262
 31
0.0
  0
LINE
  5
141
330
1F
100
AcDbEntity
  8
0
  6
Continuous
 62
     7
370
    25
100
AcDbLine
 10
129.0479384394
 20
117.5046617262
 30
0.0
 11
133.5620154094
 21
117.5046617262
 31
0.0
  0
LINE
  5
142
330
1F
100
AcDbEntity
  8
0
  6
Continuous
 62
     7
370
    25
100
AcDbLine
 10
133.5620154094
 20
117.5046617262
 30
0.0
 11
133.5620154094
 21
118.3667150177
 31
0.0
  0
LINE
  5
143
330
1F
100
AcDbEntity
  8
0
  6
Continuous
 62
     7
370
    25
100
AcDbLine
 10
133.5620154094
 20
118.3667150177
 30
0.0
 11
135.0
 21
118.3667150177
 31
0.0
  0
LINE
  5
144
330
1F
100
AcDbEntity
  8
0
  6
Continuous
 62
     7
370
    25
100
AcDbLine
 10
135.0
 20
118.3667150177
 30
0.0
 11
135.0
 21
132.5
 31
0.0
  0
ARC
  5
145
330
1F
100
AcDbEntity
  8
0
  6
Continuous
 62
     7
370
    25
100
AcDbCircle
 10
132.5
 20
132.5
 30
0.0
 40
2.5
100
AcDbArc
 50
360.0
 51
90.0
  0
LINE
  5
146
330
1F
100
AcDbEntity
  8
0
  6
Continuous
 62
     7
370
    25
100
AcDbLine
 10
132.5
 20
135.0
 30
0.0
 11
118.3667150177
 21
135.0
 31
0.0
  0
LINE
  5
147
330
1F
100
AcDbEntity
  8
0
  6
Continuous
 62
     7
370
    25
100
AcDbLine
 10
118.3667150177
 20
133.5620154094
 30
0.0
 11
118.3667150177
 21
135.0
 31
0.0
  0
LINE
  5
148
330
1F
100
AcDbEntity
  8
0
  6
Continuous
 62
     7
370
    25
100
AcDbLine
 10
117.5046617262
 20
133.5620154094
 30
0.0
 11
118.3667150177
 21
133.5620154094
 31
0.0
  0
LINE
  5
149
330
1F
100
AcDbEntity
  8
0
  6
Continuous
 62
     7
370
    25
100
AcDbLine
 10
117.5046617262
 20
129.0479384394
 30
0.0
 11
117.5046617262
 21
133.5620154094
 31
0.0
  0
LINE
  5
14A
330
1F
100
AcDbEntity
  8
0
  6
Continuous
 62
     7
370
    25
100
AcDbLine
 10
120.1594379818
 20
129.0479384394
 30
0.0
 11
117.5046617262
 21
129.0479384394
 31
0.0
  0
LINE
  5
14B
330
1F
100
AcDbEntity
  8
0
  6
Continuous
 62
     7
370
    25
100
AcDbLine
 10
120.1594379818
 20
130.9870497658
 30
0.0
 11
120.1594379818
 21
129.0479384394
 31
0.0
  0
LINE
  5
14C
330
1F
100
AcDbEntity
  8
0
  6
Continuous
 62
     7
370
    25
100
AcDbLine
 10
122.6979798885
 20
130.9870497658
 30
0.0
 11
120.1594379818
 21
130.9870497658
 31
0.0
  0
LINE
  5
14D
330
1F
100
AcDbEntity
  8
0
  6
Continuous
 62
     7
370
    25
100
AcDbLine
 10
122.6979798885
 20
125.0610228033
 30
0.0
 11
122.6979798885
 21
130.9870497658
 31
0.0
  0
LINE
  5
14E
330
1F
100
AcDbEntity
  8
0
  6
Continuous
 62
     7
370
    25
100
AcDbLine
 10
118.8780288001
 20
121.2538186411
 30
0.0
 11
122.6979798885
 21
125.0610228033
 31
0.0
  0
LINE
  5
14F
330
1F
100
AcDbEntity
  8
0
  6
Continuous
 62
     7
370
    25
100
AcDbLine
 10
113.3229481655
 20
121.2538186411
 30
0.0
 11
118.8780288001
 21
121.2538186411
 31
0.0
  0
LINE
  5
150
330
1F
100
AcDbEntity
  8
0
  6
Continuous
 62
     7
370
    25
100
AcDbLine
 10
112.5174494193
 20
120.4510077914
 30
0.0
 11
113.3229481655
 21
121.2538186411
 31
0.0
  0
LINE
  5
151
330
1F
100
AcDbEntity
  8
0
  6
Continuous
 62
     7
370
    25
100
AcDbLine
 10
112.5174494193
 20
120.4510077914
 30
0.0
 11
111.7173174968
 21
121.2538186411
 31
0.0
  0
LINE
  5
152
330
1F
100
AcDbEntity
  8
0
  6
Continuous
 62
     7
370
    25
100
AcDbLine
 10
111.7173174968
 20
121.2538186411
 30
0.0
 11
105.7569010021
 21
121.2637800207
 31
0.0
  0
LINE
  5
153
330
1F
100
AcDbEntity
  8
0
  6
Continuous
 62
     7
370
    25
100
AcDbLine
 10
105.7569010021
 20
121.2637800207
 30
0.0
 11
101.9723293695
 21
125.0610228033
 31
0.0
  0
LINE
  5
154
330
1F
100
AcDbEntity
  8
0
  6
Continuous
 62
     7
370
    25
100
AcDbLine
 10
101.9723293695
 20
125.0610228033
 30
0.0
 11
101.9822410802
 21
130.9917197434
 31
0.0
  0
LINE
  5
155
330
1F
100
AcDbEntity
  8
0
  6
Continuous
 62
     7
370
    25
100
AcDbLine
 10
101.9822410802
 20
130.9917197434
 30
0.0
 11
104.7765338918
 21
130.9870497658
 31
0.0
  0
LINE
  5
156
330
1F
100
AcDbEntity
  8
0
  6
Continuous
 62
     7
370
    25
100
AcDbLine
 10
104.7765338918
 20
130.9870497658
 30
0.0
 11
104.7733006733
 21
129.0524453501
 31
0.0
  0
LINE
  5
157
330
1F
100
AcDbEntity
  8
0
  6
Continuous
 62
     7
370
    25
100
AcDbLine
 10
104.7733006733
 20
129.0524453501
 30
0.0
 11
107.47002198
 21
129.0479384394
 31
0.0
  0
LINE
  5
158
330
1F
100
AcDbEntity
  8
0
  6
Continuous
 62
     7
370
    25
100
AcDbLine
 10
107.47002198
 20
129.0479384394
 30
0.0
 11
107.4775661565
 21
133.5620154094
 31
0.0
  0
LINE
  5
159
330
1F
100
AcDbEntity
  8
0
  6
Continuous
 62
     7
370
    25
100
AcDbLine
 10
107.4775661565
 20
133.5620154094
 30
0.0
 11
106.4516395724
 21
133.563729995
 31
0.0
  0
LINE
  5
15A
330
1F
100
AcDbEntity
  8
0
  6
Continuous
 62
     7
370
    25
100
AcDbLine
 10
106.4516395724
 20
133.563729995
 30
0.0
 11
106.4539940475
 21
134.9725360432
 31
0.0
  0
LINE
  5
15B
330
1F
100
AcDbEntity
  8
0
  6
Continuous
 62
     7
370
    25
100
AcDbLine
 10
106.4539940475
 20
134.9725360432
 30
0.0
 11
98.0501897145
 21
134.9865809485
 31
0.0
  0
LINE
  5
15C
330
1F
100
AcDbEntity
  8
0
  6
Continuous
 62
     7
370
    25
100
AcDbLine
 10
98.0501897145
 20
134.9865809485
 30
0.0
 11
98.0492450949
 21
134.4213654798
 31
0.0
  0
LINE
  5
15D
330
1F
100
AcDbEntity
  8
0
  6
Continuous
 62
     7
370
    25
100
AcDbLine
 10
81.9915321252
 20
134.4213654798
 30
0.0
 11
98.0492450949
 21
134.4213654798
 31
0.0
  0
LINE
  5
15E
330
1F
100
AcDbEntity
  8
0
  6
Continuous
 62
     7
370
    25
100
AcDbLine
 10
81.9915321252
 20
135.0
 30
0.0
 11
81.9915321252
 21
134.4213654798
 31
0.0
  0
LINE
  5
15F
330
1F
100
AcDbEntity
  8
0
  6
Continuous
 62
     7
370
    25
100
AcDbLine
 10
73.5877160559
 20
135.0
 30
0.0
 11
81.9915321252
 21
135.0
 31
0.0
  0
LINE
  5
160
330
1F
100
AcDbEntity
  8
0
  6
Continuous
 62
     7
370
    25
100
AcDbLine
 10
73.5877160559
 20
133.5911919844
 30
0.0
 11
73.5877160559
 21
135.0
 31
0.0
  0
LINE
  5
161
330
1F
100
AcDbEntity
  8
0
  6
Continuous
 62
     7
370
    25
100
AcDbLine
 10
72.5617880391
 20
133.5911919844
 30
0.0
 11
73.5877160559
 21
133.5911919844
 31
0.0
  0
LINE
  5
162
330
1F
100
AcDbEntity
  8
0
  6
Continuous
 62
     7
370
    25
100
AcDbLine
 10
72.5617880391
 20
129.0771087103
 30
0.0
 11
72.5617880391
 21
133.5911919844
 31
0.0
  0
LINE
  5
163
330
1F
100
AcDbEntity
  8
0
  6
Continuous
 62
     7
370
    25
100
AcDbLine
 10
75.2585131118
 20
129.0771087103
 30
0.0
 11
72.5617880391
 21
129.0771087103
 31
0.0
  0
LINE
  5
164
330
1F
100
AcDbEntity
  8
0
  6
Continuous
 62
     7
370
    25
100
AcDbLine
 10
75.2585131118
 20
131.0117158277
 30
0.0
 11
75.2585131118
 21
129.0771087103
 31
0.0
  0
LINE
  5
165
330
1F
100
AcDbEntity
  8
0
  6
Continuous
 62
     7
370
    25
100
AcDbLine
 10
78.0528098258
 20
131.0117158277
 30
0.0
 11
75.2585131118
 21
131.0117158277
 31
0.0
  0
LINE
  5
166
330
1F
100
AcDbEntity
  8
0
  6
Continuous
 62
     7
370
    25
100
AcDbLine
 10
78.0528098258
 20
125.0810106051
 30
0.0
 11
78.0528098258
 21
131.0117158277
 31
0.0
  0
LINE
  5
167
330
1F
100
AcDbEntity
  8
0
  6
Continuous
 62
     7
370
    25
100
AcDbLine
 10
74.261897324
 20
121.2900981034
 30
0.0
 11
78.0528098258
 21
125.0810106051
 31
0.0
  0
LINE
  5
168
330
1F
100
AcDbEntity
  8
0
  6
Continuous
 62
     7
370
    25
100
AcDbLine
 10
68.3014725054
 20
121.2900981034
 30
0.0
 11
74.261897324
 21
121.2900981034
 31
0.0
  0
LINE
  5
169
330
1F
100
AcDbEntity
  8
0
  6
Continuous
 62
     7
370
    25
100
AcDbLine
 10
67.5
 20
120.4886255979
 30
0.0
 11
68.3014725054
 21
121.2900981034
 31
0.0
  0
LINE
  5
16A
330
1F
100
AcDbEntity
  8
0
  6
Continuous
 62
     7
370
    25
100
AcDbLine
 10
67.5
 20
120.4886255979
 30
0.0
 11
66.6985274945
 21
121.2900981034
 31
0.0
  0
LINE
  5
16B
330
1F
100
AcDbEntity
  8
0
  6
Continuous
 62
     7
370
    25
100
AcDbLine
 10
66.6985274945
 20
121.2900981034
 30
0.0
 11
60.7381026759
 21
121.2900981034
 31
0.0
  0
LINE
  5
16C
330
1F
100
AcDbEntity
  8
0
  6
Continuous
 62
     7
370
    25
100
AcDbLine
 10
60.7381026759
 20
121.2900981034
 30
0.0
 11
56.9471901741
 21
125.0810106051
 31
0.0
  0
LINE
  5
16D
330
1F
100
AcDbEntity
  8
0
  6
Continuous
 62
     7
370
    25
100
AcDbLine
 10
56.9471901741
 20
125.0810106051
 30
0.0
 11
56.9471901741
 21
131.0117158277
 31
0.0
  0
LINE
  5
16E
330
1F
100
AcDbEntity
  8
0
  6
Continuous
 62
     7
370
    25
100
AcDbLine
 10
56.9471901741
 20
131.0117158277
 30
0.0
 11
59.7414868881
 21
131.0117158277
 31
0.0
  0
LINE
  5
16F
330
1F
100
AcDbEntity
  8
0
  6
Continuous
 62
     7
370
    25
100
AcDbLine
 10
59.7414868881
 20
131.0117158277
 30
0.0
 11
59.7414868881
 21
129.0771087103
 31
0.0
  0
LINE
  5
170
330
1F
100
AcDbEntity
  8
0
  6
Continuous
 62
     7
370
    25
100
AcDbLine
 10
59.7414868881
 20
129.0771087103
 30
0.0
 11
62.4382119609
 21
129.0771087103
 31
0.0
  0
LINE
  5
171
330
1F
100
AcDbEntity
  8
0
  6
Continuous
 62
     7
370
    25
100
AcDbLine
 10
62.4382119609
 20
129.0771087103
 30
0.0
 11
62.4382119609
 21
133.5911919844
 31
0.0
  0
LINE
  5
172
330
1F
100
AcDbEntity
  8
0
  6
Continuous
 62
     7
370
    25
100
AcDbLine
 10
62.4382119609
 20
133.5911919844
 30
0.0
 11
61.4122839441
 21
133.5911919844
 31
0.0
  0
LINE
  5
173
330
1F
100
AcDbEntity
  8
0
  6
Continuous
 62
     7
370
    25
100
AcDbLine
 10
61.4122839441
 20
133.5911919844
 30
0.0
 11
61.4122839441
 21
135.0
 31
0.0
  0
LINE
  5
174
330
1F
100
AcDbEntity
  8
0
  6
Continuous
 62
     7
370
    25
100
AcDbLine
 10
61.4122839441
 20
135.0
 30
0.0
 11
53.0084678748
 21
135.0
 31
0.0
  0
LINE
  5
175
330
1F
100
AcDbEntity
  8
0
  6
Continuous
 62
     7
370
    25
100
AcDbLine
 10
53.0084678748
 20
135.0
 30
0.0
 11
53.0084678748
 21
134.4213654798
 31
0.0
  0
LINE
  5
176
330
1F
100
AcDbEntity
  8
0
  6
Continuous
 62
     7
370
    25
100
AcDbLine
 10
53.0084678748
 20
134.4213654798
 30
0.0
 11
36.950754905
 21
134.4213654798
 31
0.0
  0
LINE
  5
177
330
1F
100
AcDbEntity
  8
0
  6
Continuous
 62
     7
370
    25
100
AcDbLine
 10
36.9498102855
 20
134.9865809485
 30
0.0
 11
36.950754905
 21
134.4213654798
 31
0.0
  0
LINE
  5
178
330
1F
100
AcDbEntity
  8
0
  6
Continuous
 62
     7
370
    25
100
AcDbLine
 10
28.5460059525
 20
134.9725360432
 30
0.0
 11
36.9498102855
 21
134.9865809485
 31
0.0
  0
LINE
  5
179
330
1F
100
AcDbEntity
  8
0
  6
Continuous
 62
     7
370
    25
100
AcDbLine
 10
28.5483604275
 20
133.563729995
 30
0.0
 11
28.5460059525
 21
134.9725360432
 31
0.0
  0
LINE
  5
17A
330
1F
100
AcDbEntity
  8
0
  6
Continuous
 62
     7
370
    25
100
AcDbLine
 10
27.5224338435
 20
133.5620154094
 30
0.0
 11
28.5483604275
 21
133.563729995
 31
0.0
  0
LINE
  5
17B
330
1F
100
AcDbEntity
  8
0
  6
Continuous
 62
     7
370
    25
100
AcDbLine
 10
27.52997802
 20
129.0479384394
 30
0.0
 11
27.5224338435
 21
133.5620154094
 31
0.0
  0
LINE
  5
17C
330
1F
100
AcDbEntity
  8
0
  6
Continuous
 62
     7
370
    25
100
AcDbLine
 10
30.2266993267
 20
129.0524453501
 30
0.0
 11
27.52997802
 21
129.0479384394
 31
0.0
  0
LINE
  5
17D
330
1F
100
AcDbEntity
  8
0
  6
Continuous
 62
     7
370
    25
100
AcDbLine
 10
30.2234661081
 20
130.9870497658
 30
0.0
 11
30.2266993267
 21
129.0524453501
 31
0.0
  0
LINE
  5
17E
330
1F
100
AcDbEntity
  8
0
  6
Continuous
 62
     7
370
    25
100
AcDbLine
 10
33.0177589198
 20
130.9917197434
 30
0.0
 11
30.2234661081
 21
130.9870497658
 31
0.0
  0
LINE
  5
17F
330
1F
100
AcDbEntity
  8
0
  6
Continuous
 62
     7
370
    25
100
AcDbLine
 10
33.0276706304
 20
125.0610228033
 30
0.0
 11
33.0177589198
 21
130.9917197434
 31
0.0
  0
LINE
  5
180
330
1F
100
AcDbEntity
  8
0
  6
Continuous
 62
     7
370
    25
100
AcDbLine
 10
29.2430989978
 20
121.2637800207
 30
0.0
 11
33.0276706304
 21
125.0610228033
 31
0.0
  0
LINE
  5
181
330
1F
100
AcDbEntity
  8
0
  6
Continuous
 62
     7
370
    25
100
AcDbLine
 10
23.2826825032
 20
121.2538186411
 30
0.0
 11
29.2430989978
 21
121.2637800207
 31
0.0
  0
LINE
  5
182
330
1F
100
AcDbEntity
  8
0
  6
Continuous
 62
     7
370
    25
100
AcDbLine
 10
22.4825505806
 20
120.4510077914
 30
0.0
 11
23.2826825032
 21
121.2538186411
 31
0.0
  0
LINE
  5
183
330
1F
100
AcDbEntity
  8
0
  6
Continuous
 62
     7
370
    25
100
AcDbLine
 10
22.4825505806
 20
120.4510077914
 30
0.0
 11
21.6770518344
 21
121.2538186411
 31
0.0
  0
LINE
  5
184
330
1F
100
AcDbEntity
  8
0
  6
Continuous
 62
     7
370
    25
100
AcDbLine
 10
21.6770518344
 20
121.2538186411
 30
0.0
 11
16.1219711998
 21
121.2538186411
 31
0.0
  0
LINE
  5
185
330
1F
100
AcDbEntity
  8
0
  6
Continuous
 62
     7
370
    25
100
AcDbLine
 10
16.1219711998
 20
121.2538186411
 30
0.0
 11
12.3020201115
 21
125.0610228033
 31
0.0
  0
LINE
  5
186
330
1F
100
AcDbEntity
  8
0
  6
Continuous
 62
     7
370
    25
100
AcDbLine
 10
12.3020201115
 20
125.0610228033
 30
0.0
 11
12.3020201115
 21
130.9870497658
 31
0.0
  0
LINE
  5
187
330
1F
100
AcDbEntity
  8
0
  6
Continuous
 62
     7
370
    25
100
AcDbLine
 10
12.3020201115
 20
130.9870497658
 30
0.0
 11
14.8405620181
 21
130.9870497658
 31
0.0
  0
LINE
  5
188
330
1F
100
AcDbEntity
  8
0
  6
Continuous
 62
     7
370
    25
100
AcDbLine
 10
14.8405620181
 20
130.9870497658
 30
0.0
 11
14.8405620181
 21
129.0479384394
 31
0.0
  0
LINE
  5
189
330
1F
100
AcDbEntity
  8
0
  6
Continuous
 62
     7
370
    25
100
AcDbLine
 10
14.8405620181
 20
129.0479384394
 30
0.0
 11
17.4953382737
 21
129.0479384394
 31
0.0
  0
LINE
  5
18A
330
1F
100
AcDbEntity
  8
0
  6
Continuous
 62
     7
370
    25
100
AcDbLine
 10
17.4953382737
 20
129.0479384394
 30
0.0
 11
17.4953382737
 21
133.5620154094
 31
0.0
  0
LINE
  5
18B
330
1F
100
AcDbEntity
  8
0
  6
Continuous
 62
     7
370
    25
100
AcDbLine
 10
17.4953382737
 20
133.5620154094
 30
0.0
 11
16.6332849822
 21
133.5620154094
 31
0.0
  0
LINE
  5
18C
330
1F
100
AcDbEntity
  8
0
  6
Continuous
 62
     7
370
    25
100
AcDbLine
 10
16.6332849822
 20
133.5620154094
 30
0.0
 11
16.6332849822
 21
135.0
 31
0.0
  0
LINE
  5
18D
330
1F
100
AcDbEntity
  8
0
  6
Continuous
 62
     7
370
    25
100
AcDbLine
 10
2.4999999999
 20
135.0
 30
0.0
 11
16.6332849822
 21
135.0
 31
0.0
  0
ARC
  5
18E
330
1F
100
AcDbEntity
  8
0
  6
Continuous
 62
     7
370
    25
100
AcDbCircle
 10
2.4999999999
 20
132.5
 30
0.0
 40
2.500000000000028
100
AcDbArc
 50
90.0
 51
180.0
  0
LINE
  5
18F
330
1F
100
AcDbEntity
  8
0
  6
Continuous
 62
     7
370
    25
100
AcDbLine
 10
-0.0000000001
 20
118.3667150177
 30
0.0
 11
-0.0000000001
 21
132.5
 31
0.0
  0
LINE
  5
190
330
1F
100
AcDbEntity
  8
0
  6
Continuous
 62
     7
370
    25
100
AcDbLine
 10
1.4379845905
 20
118.3667150177
 30
0.0
 11
-0.0000000001
 21
118.3667150177
 31
0.0
  0
LINE
  5
191
330
1F
100
AcDbEntity
  8
0
  6
Continuous
 62
     7
370
    25
100
AcDbLine
 10
1.4379845905
 20
117.5046617262
 30
0.0
 11
1.4379845905
 21
118.3667150177
 31
0.0
  0
LINE
  5
192
330
1F
100
AcDbEntity
  8
0
  6
Continuous
 62
     7
370
    25
100
AcDbLine
 10
5.9520615605
 20
117.5046617262
 30
0.0
 11
1.4379845905
 21
117.5046617262
 31
0.0
  0
LINE
  5
193
330
1F
100
AcDbEntity
  8
0
  6
Continuous
 62
     7
370
    25
100
AcDbLine
 10
5.9520615605
 20
120.1594379818
 30
0.0
 11
5.9520615605
 21
117.5046617262
 31
0.0
  0
LINE
  5
194
330
1F
100
AcDbEntity
  8
0
  6
Continuous
 62
     7
370
    25
100
AcDbLine
 10
4.0129502342
 20
120.1594379818
 30
0.0
 11
5.9520615605
 21
120.1594379818
 31
0.0
  0
LINE
  5
195
330
1F
100
AcDbEntity
  8
0
  6
Continuous
 62
     7
370
    25
100
AcDbLine
 10
4.0129502342
 20
122.6979798885
 30
0.0
 11
4.0129502342
 21
120.1594379818
 31
0.0
  0
LINE
  5
196
330
1F
100
AcDbEntity
  8
0
  6
Continuous
 62
     7
370
    25
100
AcDbLine
 10
9.9389771967
 20
122.6979798885
 30
0.0
 11
4.0129502342
 21
122.6979798885
 31
0.0
  0
LINE
  5
197
330
1F
100
AcDbEntity
  8
0
  6
Continuous
 62
     7
370
    25
100
AcDbLine
 10
13.7461813589
 20
118.8780288001
 30
0.0
 11
9.9389771967
 21
122.6979798885
 31
0.0
  0
LINE
  5
198
330
1F
100
AcDbEntity
  8
0
  6
Continuous
 62
     7
370
    25
100
AcDbLine
 10
13.7461813589
 20
113.3229481655
 30
0.0
 11
13.7461813589
 21
118.8780288001
 31
0.0
  0
LINE
  5
199
330
1F
100
AcDbEntity
  8
0
  6
Continuous
 62
     7
370
    25
100
AcDbLine
 10
14.5489922086
 20
112.5174494193
 30
0.0
 11
13.7461813589
 21
113.3229481655
 31
0.0
  0
LINE
  5
19A
330
1F
100
AcDbEntity
  8
0
  6
Continuous
 62
     7
370
    25
100
AcDbLine
 10
14.5489922086
 20
112.5174494193
 30
0.0
 11
13.7461813589
 21
111.7173174968
 31
0.0
  0
LINE
  5
19B
330
1F
100
AcDbEntity
  8
0
  6
Continuous
 62
     7
370
    25
100
AcDbLine
 10
13.7461813589
 20
111.7173174968
 30
0.0
 11
13.7362199793
 21
105.7569010021
 31
0.0
  0
LINE
  5
19C
330
1F
100
AcDbEntity
  8
0
  6
Continuous
 62
     7
370
    25
100
AcDbLine
 10
13.7362199793
 20
105.7569010021
 30
0.0
 11
9.9389771967
 21
101.9723293695
 31
0.0
  0
LINE
  5
19D
330
1F
100
AcDbEntity
  8
0
  6
Continuous
 62
     7
370
    25
100
AcDbLine
 10
9.9389771967
 20
101.9723293695
 30
0.0
 11
4.0082802566
 21
101.9822410802
 31
0.0
  0
LINE
  5
19E
330
1F
100
AcDbEntity
  8
0
  6
Continuous
 62
     7
370
    25
100
AcDbLine
 10
4.0082802566
 20
101.9822410802
 30
0.0
 11
4.0129502342
 21
104.7765338918
 31
0.0
  0
LINE
  5
19F
330
1F
100
AcDbEntity
  8
0
  6
Continuous
 62
     7
370
    25
100
AcDbLine
 10
4.0129502342
 20
104.7765338918
 30
0.0
 11
5.9475546499
 21
104.7733006733
 31
0.0
  0
LINE
  5
1A0
330
1F
100
AcDbEntity
  8
0
  6
Continuous
 62
     7
370
    25
100
AcDbLine
 10
5.9475546499
 20
104.7733006733
 30
0.0
 11
5.9520615605
 21
107.47002198
 31
0.0
  0
LINE
  5
1A1
330
1F
100
AcDbEntity
  8
0
  6
Continuous
 62
     7
370
    25
100
AcDbLine
 10
5.9520615605
 20
107.47002198
 30
0.0
 11
1.4379845905
 21
107.4775661565
 31
0.0
  0
LINE
  5
1A2
330
1F
100
AcDbEntity
  8
0
  6
Continuous
 62
     7
370
    25
100
AcDbLine
 10
1.4379845905
 20
107.4775661565
 30
0.0
 11
1.4362700049
 21
106.4516395724
 31
0.0
  0
LINE
  5
1A3
330
1F
100
AcDbEntity
  8
0
  6
Continuous
 62
     7
370
    25
100
AcDbLine
 10
1.4362700049
 20
106.4516395724
 30
0.0
 11
-0.0000000001
 21
106.4540399467
 31
0.0
  0
LINE
  5
1A4
330
1F
100
AcDbEntity
  8
0
  6
Continuous
 62
     7
370
    25
100
AcDbLine
 10
-0.0000000001
 20
106.4540399467
 30
0.0
 11
-0.0000000001
 21
98.0501779788
 31
0.0
  0
LINE
  5
1A5
330
1F
100
AcDbEntity
  8
0
  6
Continuous
 62
     7
370
    25
100
AcDbLine
 10
-0.0000000001
 20
98.0501779788
 30
0.0
 11
0.5786345202
 21
98.0501779788
 31
0.0
  0
LINE
  5
1A6
330
1F
100
AcDbEntity
  8
0
  6
Continuous
 62
     7
370
    25
100
AcDbLine
 10
0.5786345202
 20
81.9915321252
 30
0.0
 11
0.5786345202
 21
98.0501779788
 31
0.0
  0
LINE
  5
1A7
330
1F
100
AcDbEntity
  8
0
  6
Continuous
 62
     7
370
    25
100
AcDbLine
 10
-0.0000000001
 20
81.9915321252
 30
0.0
 11
0.5786345202
 21
81.9915321252
 31
0.0
  0
LINE
  5
1A8
330
1F
100
AcDbEntity
  8
0
  6
Continuous
 62
     7
370
    25
100
AcDbLine
 10
-0.0000000001
 20
73.5877160559
 30
0.0
 11
-0.0000000001
 21
81.9915321252
 31
0.0
  0
LINE
  5
1A9
330
1F
100
AcDbEntity
  8
0
  6
Continuous
 62
     7
370
    25
100
AcDbLine
 10
1.4088080156
 20
73.5877160559
 30
0.0
 11
-0.0000000001
 21
73.5877160559
 31
0.0
  0
LINE
  5
1AA
330
1F
100
AcDbEntity
  8
0
  6
Continuous
 62
     7
370
    25
100
AcDbLine
 10
1.4088080156
 20
72.5617880391
 30
0.0
 11
1.4088080156
 21
73.5877160559
 31
0.0
  0
LINE
  5
1AB
330
1F
100
AcDbEntity
  8
0
  6
Continuous
 62
     7
370
    25
100
AcDbLine
 10
5.9228912897
 20
72.5617880391
 30
0.0
 11
1.4088080156
 21
72.5617880391
 31
0.0
  0
LINE
  5
1AC
330
1F
100
AcDbEntity
  8
0
  6
Continuous
 62
     7
370
    25
100
AcDbLine
 10
5.9228912897
 20
75.2585131118
 30
0.0
 11
5.9228912897
 21
72.5617880391
 31
0.0
  0
LINE
  5
1AD
330
1F
100
AcDbEntity
  8
0
  6
Continuous
 62
     7
370
    25
100
AcDbLine
 10
3.9882841722
 20
75.2585131118
 30
0.0
 11
5.9228912897
 21
75.2585131118
 31
0.0
  0
LINE
  5
1AE
330
1F
100
AcDbEntity
  8
0
  6
Continuous
 62
     7
370
    25
100
AcDbLine
 10
3.9882841722
 20
78.0528098258
 30
0.0
 11
3.9882841722
 21
75.2585131118
 31
0.0
  0
LINE
  5
1AF
330
1F
100
AcDbEntity
  8
0
  6
Continuous
 62
     7
370
    25
100
AcDbLine
 10
9.9189893948
 20
78.0528098258
 30
0.0
 11
3.9882841722
 21
78.0528098258
 31
0.0
  0
LINE
  5
1B0
330
1F
100
AcDbEntity
  8
0
  6
Continuous
 62
     7
370
    25
100
AcDbLine
 10
13.7099018966
 20
74.261897324
 30
0.0
 11
9.9189893948
 21
78.0528098258
 31
0.0
  0
LINE
  5
1B1
330
1F
100
AcDbEntity
  8
0
  6
Continuous
 62
     7
370
    25
100
AcDbLine
 10
13.7099018966
 20
68.3014725054
 30
0.0
 11
13.7099018966
 21
74.261897324
 31
0.0
  0
LINE
  5
1B2
330
1F
100
AcDbEntity
  8
0
  6
Continuous
 62
     7
370
    25
100
AcDbLine
 10
14.511374402
 20
67.5
 30
0.0
 11
13.7099018966
 21
68.3014725054
 31
0.0
  0
LINE
  5
1B3
330
1F
100
AcDbEntity
  8
0
  6
Continuous
 62
     7
370
    25
100
AcDbLine
 10
14.511374402
 20
67.5
 30
0.0
 11
13.7099018966
 21
66.6985274945
 31
0.0
  0
LINE
  5
1B4
330
1F
100
AcDbEntity
  8
0
  6
Continuous
 62
     7
370
    25
100
AcDbLine
 10
13.7099018966
 20
66.6985274945
 30
0.0
 11
13.7099018966
 21
60.7381026759
 31
0.0
  0
LINE
  5
1B5
330
1F
100
AcDbEntity
  8
0
  6
Continuous
 62
     7
370
    25
100
AcDbLine
 10
13.7099018966
 20
60.7381026759
 30
0.0
 11
9.9189893948
 21
56.9471901741
 31
0.0
  0
LINE
  5
1B6
330
1F
100
AcDbEntity
  8
0
  6
Continuous
 62
     7
370
    25
100
AcDbLine
 10
9.9189893948
 20
56.9471901741
 30
0.0
 11
3.9882841722
 21
56.9471901741
 31
0.0
  0
LINE
  5
1B7
330
1F
100
AcDbEntity
  8
0
  6
Continuous
 62
     7
370
    25
100
AcDbLine
 10
3.9882841722
 20
56.9471901741
 30
0.0
 11
3.9882841722
 21
59.7414868881
 31
0.0
  0
LINE
  5
1B8
330
1F
100
AcDbEntity
  8
0
  6
Continuous
 62
     7
370
    25
100
AcDbLine
 10
3.9882841722
 20
59.7414868881
 30
0.0
 11
5.9228912897
 21
59.7414868881
 31
0.0
  0
LINE
  5
1B9
330
1F
100
AcDbEntity
  8
0
  6
Continuous
 62
     7
370
    25
100
AcDbLine
 10
5.9228912897
 20
59.7414868881
 30
0.0
 11
5.9228912897
 21
62.4382119609
 31
0.0
  0
LINE
  5
1BA
330
1F
100
AcDbEntity
  8
0
  6
Continuous
 62
     7
370
    25
100
AcDbLine
 10
5.9228912897
 20
62.4382119609
 30
0.0
 11
1.4088080156
 21
62.4382119609
 31
0.0
  0
LINE
  5
1BB
330
1F
100
AcDbEntity
  8
0
  6
Continuous
 62
     7
370
    25
100
AcDbLine
 10
1.4088080156
 20
62.4382119609
 30
0.0
 11
1.4088080156
 21
61.4122839441
 31
0.0
  0
LINE
  5
1BC
330
1F
100
AcDbEntity
  8
0
  6
Continuous
 62
     7
370
    25
100
AcDbLine
 10
1.4088080156
 20
61.4122839441
 30
0.0
 11
-0.0000000001
 21
61.4122839441
 31
0.0
  0
LINE
  5
1BD
330
1F
100
AcDbEntity
  8
0
  6
Continuous
 62
     7
370
    25
100
AcDbLine
 10
-0.0000000001
 20
61.4122839441
 30
0.0
 11
-0.0000000001
 21
53.0084678748
 31
0.0
  0
LINE
  5
1BE
330
1F
100
AcDbEntity
  8
0
  6
Continuous
 62
     7
370
    25
100
AcDbLine
 10
-0.0000000001
 20
53.0084678748
 30
0.0
 11
0.5786345202
 21
53.0084678748
 31
0.0
  0
LINE
  5
1BF
330
1F
100
AcDbEntity
  8
0
  6
Continuous
 62
     7
370
    25
100
AcDbLine
 10
0.5786345202
 20
53.0084678748
 30
0.0
 11
0.5786345202
 21
36.9498220211
 31
0.0
  0
LINE
  5
1C0
330
1F
100
AcDbEntity
  8
0
  6
Continuous
 62
     7
370
    25
100
AcDbLine
 10
-0.0000000001
 20
36.9498220211
 30
0.0
 11
0.5786345202
 21
36.9498220211
 31
0.0
  0
LINE
  5
1C1
330
1F
100
AcDbEntity
  8
0
  6
Continuous
 62
     7
370
    25
100
AcDbLine
 10
-0.0000000001
 20
28.5459600532
 30
0.0
 11
-0.0000000001
 21
36.9498220211
 31
0.0
  0
LINE
  5
1C2
330
1F
100
AcDbEntity
  8
0
  6
Continuous
 62
     7
370
    25
100
AcDbLine
 10
1.4362700049
 20
28.5483604275
 30
0.0
 11
-0.0000000001
 21
28.5459600532
 31
0.0
  0
LINE
  5
1C3
330
1F
100
AcDbEntity
  8
0
  6
Continuous
 62
     7
370
    25
100
AcDbLine
 10
1.4379845905
 20
27.5224338435
 30
0.0
 11
1.4362700049
 21
28.5483604275
 31
0.0
  0
LINE
  5
1C4
330
1F
100
AcDbEntity
  8
0
  6
Continuous
 62
     7
370
    25
100
AcDbLine
 10
5.9520615605
 20
27.52997802
 30
0.0
 11
1.4379845905
 21
27.5224338435
 31
0.0
  0
LINE
  5
1C5
330
1F
100
AcDbEntity
  8
0
  6
Continuous
 62
     7
370
    25
100
AcDbLine
 10
5.9475546499
 20
30.2266993267
 30
0.0
 11
5.9520615605
 21
27.52997802
 31
0.0
  0
LINE
  5
1C6
330
1F
100
AcDbEntity
  8
0
  6
Continuous
 62
     7
370
    25
100
AcDbLine
 10
4.0129502342
 20
30.2234661081
 30
0.0
 11
5.9475546499
 21
30.2266993267
 31
0.0
  0
LINE
  5
1C7
330
1F
100
AcDbEntity
  8
0
  6
Continuous
 62
     7
370
    25
100
AcDbLine
 10
4.0082802566
 20
33.0177589198
 30
0.0
 11
4.0129502342
 21
30.2234661081
 31
0.0
  0
LINE
  5
1C8
330
1F
100
AcDbEntity
  8
0
  6
Continuous
 62
     7
370
    25
100
AcDbLine
 10
9.9389771967
 20
33.0276706304
 30
0.0
 11
4.0082802566
 21
33.0177589198
 31
0.0
  0
LINE
  5
1C9
330
1F
100
AcDbEntity
  8
0
  6
Continuous
 62
     7
370
    25
100
AcDbLine
 10
13.7362199793
 20
29.2430989978
 30
0.0
 11
9.9389771967
 21
33.0276706304
 31
0.0
  0
LINE
  5
1CA
330
1F
100
AcDbEntity
  8
0
  6
Continuous
 62
     7
370
    25
100
AcDbLine
 10
13.7461813589
 20
23.2826825032
 30
0.0
 11
13.7362199793
 21
29.2430989978
 31
0.0
  0
LINE
  5
1CB
330
1F
100
AcDbEntity
  8
0
  6
Continuous
 62
     7
370
    25
100
AcDbLine
 10
14.5489922086
 20
22.4825505806
 30
0.0
 11
13.7461813589
 21
23.2826825032
 31
0.0
  0
LINE
  5
1CC
330
1F
100
AcDbEntity
  8
0
  6
Continuous
 62
     7
370
    25
100
AcDbLine
 10
14.5489922086
 20
22.4825505806
 30
0.0
 11
13.7461813589
 21
21.6770518344
 31
0.0
  0
LINE
  5
1CD
330
1F
100
AcDbEntity
  8
0
  6
Continuous
 62
     7
370
    25
100
AcDbLine
 10
13.7461813589
 20
21.6770518344
 30
0.0
 11
13.7461813589
 21
16.1219711998
 31
0.0
  0
LINE
  5
1CE
330
1F
100
AcDbEntity
  8
0
  6
Continuous
 62
     7
370
    25
100
AcDbLine
 10
13.7461813589
 20
16.1219711998
 30
0.0
 11
9.9389771967
 21
12.3020201115
 31
0.0
  0
LINE
  5
1CF
330
1F
100
AcDbEntity
  8
0
  6
Continuous
 62
     7
370
    25
100
AcDbLine
 10
9.9389771967
 20
12.3020201115
 30
0.0
 11
4.0129502342
 21
12.3020201115
 31
0.0
  0
LINE
  5
1D0
330
1F
100
AcDbEntity
  8
0
  6
Continuous
 62
     7
370
    25
100
AcDbLine
 10
4.0129502342
 20
12.3020201115
 30
0.0
 11
4.0129502342
 21
14.8405620181
 31
0.0
  0
LINE
  5
1D1
330
1F
100
AcDbEntity
  8
0
  6
Continuous
 62
     7
370
    25
100
AcDbLine
 10
4.0129502342
 20
14.8405620181
 30
0.0
 11
5.9520615605
 21
14.8405620181
 31
0.0
  0
LINE
  5
1D2
330
1F
100
AcDbEntity
  8
0
  6
Continuous
 62
     7
370
    25
100
AcDbLine
 10
5.9520615605
 20
14.8405620181
 30
0.0
 11
5.9520615605
 21
17.4953382737
 31
0.0
  0
LINE
  5
1D3
330
1F
100
AcDbEntity
  8
0
  6
Continuous
 62
     7
370
    25
100
AcDbLine
 10
5.9520615605
 20
17.4953382737
 30
0.0
 11
1.4379845905
 21
17.4953382737
 31
0.0
  0
LINE
  5
1D4
330
1F
100
AcDbEntity
  8
0
  6
Continuous
 62
     7
370
    25
100
AcDbLine
 10
1.4379845905
 20
17.4953382737
 30
0.0
 11
1.4379845905
 21
16.6332849822
 31
0.0
  0
LINE
  5
1D5
330
1F
100
AcDbEntity
  8
0
  6
Continuous
 62
     7
370
    25
100
AcDbLine
 10
1.4379845905
 20
16.6332849822
 30
0.0
 11
-0.0000000001
 21
16.6332849822
 31
0.0
  0
LINE
  5
1D6
330
1F
100
AcDbEntity
  8
0
  6
Continuous
 62
     7
370
    25
100
AcDbLine
 10
-0.0000000001
 20
16.6332849822
 30
0.0
 11
-0.0000000001
 21
2.4999999999
 31
0.0
  0
ARC
  5
1D7
330
1F
100
AcDbEntity
  8
0
  6
Continuous
 62
     7
370
    25
100
AcDbCircle
 10
2.4999999999
 20
2.4999999999
 30
0.0
 40
2.5
100
AcDbArc
 50
180.0
 51
270.0
  0
LINE
  5
1D8
330
1F
100
AcDbEntity
  8
0
  6
Continuous
 62
     7
370
    25
100
AcDbLine
 10
2.4999999999
 20
-0.0000000001
 30
0.0
 11
16.6332849822
 21
-0.0000000001
 31
0.0
  0
LINE
  5
1D9
330
1F
100
AcDbEntity
  8
0
  6
Continuous
 62
     7
370
    25
100
AcDbLine
 10
16.6332849822
 20
1.4379845905
 30
0.0
 11
16.6332849822
 21
-0.0000000001
 31
0.0
  0
LINE
  5
1DA
330
1F
100
AcDbEntity
  8
0
  6
Continuous
 62
     7
370
    25
100
AcDbLine
 10
17.4953382737
 20
1.4379845905
 30
0.0
 11
16.6332849822
 21
1.4379845905
 31
0.0
  0
LINE
  5
1DB
330
1F
100
AcDbEntity
  8
0
  6
Continuous
 62
     7
370
    25
100
AcDbLine
 10
17.4953382737
 20
5.9520615605
 30
0.0
 11
17.4953382737
 21
1.4379845905
 31
0.0
  0
LINE
  5
1DC
330
1F
100
AcDbEntity
  8
0
  6
Continuous
 62
     7
370
    25
100
AcDbLine
 10
14.8405620181
 20
5.9520615605
 30
0.0
 11
17.4953382737
 21
5.9520615605
 31
0.0
  0
LINE
  5
1DD
330
1F
100
AcDbEntity
  8
0
  6
Continuous
 62
     7
370
    25
100
AcDbLine
 10
14.8405620181
 20
4.0129502342
 30
0.0
 11
14.8405620181
 21
5.9520615605
 31
0.0
  0
LINE
  5
1DE
330
1F
100
AcDbEntity
  8
0
  6
Continuous
 62
     7
370
    25
100
AcDbLine
 10
12.3020201115
 20
4.0129502342
 30
0.0
 11
14.8405620181
 21
4.0129502342
 31
0.0
  0
LINE
  5
1DF
330
1F
100
AcDbEntity
  8
0
  6
Continuous
 62
     7
370
    25
100
AcDbLine
 10
12.3020201115
 20
9.9389771967
 30
0.0
 11
12.3020201115
 21
4.0129502342
 31
0.0
  0
LINE
  5
1E0
330
1F
100
AcDbEntity
  8
0
  6
Continuous
 62
     7
370
    25
100
AcDbLine
 10
16.1219711998
 20
13.7461813589
 30
0.0
 11
12.3020201115
 21
9.9389771967
 31
0.0
  0
LINE
  5
1E1
330
1F
100
AcDbEntity
  8
0
  6
Continuous
 62
     7
370
    25
100
AcDbLine
 10
21.6770518344
 20
13.7461813589
 30
0.0
 11
16.1219711998
 21
13.7461813589
 31
0.0
  0
LINE
  5
1E2
330
1F
100
AcDbEntity
  8
0
  6
Continuous
 62
     7
370
    25
100
AcDbLine
 10
22.4825505806
 20
14.5489922086
 30
0.0
 11
21.6770518344
 21
13.7461813589
 31
0.0
  0
LINE
  5
1E3
330
1F
100
AcDbEntity
  8
0
  6
Continuous
 62
     7
370
    25
100
AcDbLine
 10
22.4825505806
 20
14.5489922086
 30
0.0
 11
23.2826825032
 21
13.7461813589
 31
0.0
  0
LINE
  5
1E4
330
1F
100
AcDbEntity
  8
0
  6
Continuous
 62
     7
370
    25
100
AcDbLine
 10
23.2826825032
 20
13.7461813589
 30
0.0
 11
29.2430989978
 21
13.7362199793
 31
0.0
  0
LINE
  5
1E5
330
1F
100
AcDbEntity
  8
0
  6
Continuous
 62
     7
370
    25
100
AcDbLine
 10
29.2430989978
 20
13.7362199793
 30
0.0
 11
33.0276706304
 21
9.9389771967
 31
0.0
  0
LINE
  5
1E6
330
1F
100
AcDbEntity
  8
0
  6
Continuous
 62
     7
370
    25
100
AcDbLine
 10
33.0276706304
 20
9.9389771967
 30
0.0
 11
33.0177589198
 21
4.0082802566
 31
0.0
  0
LINE
  5
1E7
330
1F
100
AcDbEntity
  8
0
  6
Continuous
 62
     7
370
    25
100
AcDbLine
 10
33.0177589198
 20
4.0082802566
 30
0.0
 11
30.2234661081
 21
4.0129502342
 31
0.0
  0
LINE
  5
1E8
330
1F
100
AcDbEntity
  8
0
  6
Continuous
 62
     7
370
    25
100
AcDbLine
 10
30.2234661081
 20
4.0129502342
 30
0.0
 11
30.2266993267
 21
5.9475546499
 31
0.0
  0
LINE
  5
1E9
330
1F
100
AcDbEntity
  8
0
  6
Continuous
 62
     7
370
    25
100
AcDbLine
 10
30.2266993267
 20
5.9475546499
 30
0.0
 11
27.52997802
 21
5.9520615605
 31
0.0
  0
LINE
  5
1EA
330
1F
100
AcDbEntity
  8
0
  6
Continuous
 62
     7
370
    25
100
AcDbLine
 10
27.52997802
 20
5.9520615605
 30
0.0
 11
27.5224338435
 21
1.4379845905
 31
0.0
  0
LINE
  5
1EB
330
1F
100
AcDbEntity
  8
0
  6
Continuous
 62
     7
370
    25
100
AcDbLine
 10
27.5224338435
 20
1.4379845905
 30
0.0
 11
28.5483604275
 21
1.4362700049
 31
0.0
  0
LINE
  5
1EC
330
1F
100
AcDbEntity
  8
0
  6
Continuous
 62
     7
370
    25
100
AcDbLine
 10
28.5483604275
 20
1.4362700049
 30
0.0
 11
28.5460059525
 21
0.0274639568
 31
0.0
  0
LINE
  5
1ED
330
1F
100
AcDbEntity
  8
0
  6
Continuous
 62
     7
370
    25
100
AcDbLine
 10
28.5460059525
 20
0.0274639568
 30
0.0
 11
36.9498102855
 21
0.0134190515
 31
0.0
  0
LINE
  5
1EE
330
1F
100
AcDbEntity
  8
0
  6
Continuous
 62
     7
370
    25
100
AcDbLine
 10
36.9498102855
 20
0.0134190515
 30
0.0
 11
36.950754905
 21
0.5786345202
 31
0.0
  0
LINE
  5
1EF
330
1F
100
AcDbEntity
  8
0
  6
Continuous
 62
     7
370
    25
100
AcDbLine
 10
53.0084678748
 20
0.5786345202
 30
0.0
 11
36.950754905
 21
0.5786345202
 31
0.0
  0
LINE
  5
1F0
330
1F
100
AcDbEntity
  8
0
  6
Continuous
 62
     7
370
    25
100
AcDbLine
 10
53.0084678748
 20
-0.0000000001
 30
0.0
 11
53.0084678748
 21
0.5786345202
 31
0.0
  0
LINE
  5
1F1
330
1F
100
AcDbEntity
  8
0
  6
Continuous
 62
     7
370
    25
100
AcDbLine
 10
61.4122839441
 20
-0.0000000001
 30
0.0
 11
53.0084678748
 21
-0.0000000001
 31
0.0
  0
LINE
  5
1F2
330
1F
100
AcDbEntity
  8
0
  6
Continuous
 62
     7
370
    25
100
AcDbLine
 10
61.4122839441
 20
1.4088080156
 30
0.0
 11
61.4122839441
 21
-0.0000000001
 31
0.0
  0
LINE
  5
1F3
330
1F
100
AcDbEntity
  8
0
  6
Continuous
 62
     7
370
    25
100
AcDbLine
 10
62.4382119609
 20
1.4088080156
 30
0.0
 11
61.4122839441
 21
1.4088080156
 31
0.0
  0
LINE
  5
1F4
330
1F
100
AcDbEntity
  8
0
  6
Continuous
 62
     7
370
    25
100
AcDbLine
 10
62.4382119609
 20
5.9228912897
 30
0.0
 11
62.4382119609
 21
1.4088080156
 31
0.0
  0
LINE
  5
1F5
330
1F
100
AcDbEntity
  8
0
  6
Continuous
 62
     7
370
    25
100
AcDbLine
 10
59.7414868881
 20
5.9228912897
 30
0.0
 11
62.4382119609
 21
5.9228912897
 31
0.0
  0
LINE
  5
1F6
330
1F
100
AcDbEntity
  8
0
  6
Continuous
 62
     7
370
    25
100
AcDbLine
 10
59.7414868881
 20
3.9882841722
 30
0.0
 11
59.7414868881
 21
5.9228912897
 31
0.0
  0
LINE
  5
1F7
330
1F
100
AcDbEntity
  8
0
  6
Continuous
 62
     7
370
    25
100
AcDbLine
 10
56.9471901741
 20
3.9882841722
 30
0.0
 11
59.7414868881
 21
3.9882841722
 31
0.0
  0
LINE
  5
1F8
330
1F
100
AcDbEntity
  8
0
  6
Continuous
 62
     7
370
    25
100
AcDbLine
 10
56.9471901741
 20
9.9189893948
 30
0.0
 11
56.9471901741
 21
3.9882841722
 31
0.0
  0
LINE
  5
1F9
330
1F
100
AcDbEntity
  8
0
  6
Continuous
 62
     7
370
    25
100
AcDbLine
 10
60.7381026759
 20
13.7099018966
 30
0.0
 11
56.9471901741
 21
9.9189893948
 31
0.0
  0
LINE
  5
1FA
330
1F
100
AcDbEntity
  8
0
  6
Continuous
 62
     7
370
    25
100
AcDbLine
 10
66.6985274945
 20
13.7099018966
 30
0.0
 11
60.7381026759
 21
13.7099018966
 31
0.0
  0
ARC
  5
1FB
330
1F
100
AcDbEntity
  8
0
  6
Continuous
 62
     7
370
    25
100
AcDbCircle
 10
64.6908092684
 20
28.2113757392
 30
0.0
 40
0.2500000000000195
100
AcDbArc
 50
313.9036817796
 51
90.0
  0
LINE
  5
1FC
330
1F
100
AcDbEntity
  8
0
  6
Continuous
 62
     7
370
    25
100
AcDbLine
 10
64.420392555
 20
27.6041363431
 30
0.0
 11
64.8641713007
 21
28.031249101
 31
0.0
  0
LINE
  5
1FD
330
1F
100
AcDbEntity
  8
0
  6
Continuous
 62
     7
370
    25
100
AcDbLine
 10
65.4735487428
 20
26.5098858826
 30
0.0
 11
64.420392555
 21
27.6041363431
 31
0.0
  0
ARC
  5
1FE
330
1F
100
AcDbEntity
  8
0
  6
Continuous
 62
     7
370
    25
100
AcDbCircle
 10
67.5
 20
22.4919890071
 30
0.0
 40
4.500000000000663
100
AcDbArc
 50
63.2356228001
 51
116.7643771999
  0
LINE
  5
1FF
330
1F
100
AcDbEntity
  8
0
  6
Continuous
 62
     7
370
    25
100
AcDbLine
 10
69.5264512572
 20
26.5098858826
 30
0.0
 11
70.579607445
 21
27.6041363431
 31
0.0
  0
LINE
  5
200
330
1F
100
AcDbEntity
  8
0
  6
Continuous
 62
     7
370
    25
100
AcDbLine
 10
70.579607445
 20
27.6041363431
 30
0.0
 11
70.1358286993
 21
28.031249101
 31
0.0
  0
ARC
  5
201
330
1F
100
AcDbEntity
  8
0
  6
Continuous
 62
     7
370
    25
100
AcDbCircle
 10
70.3091907315
 20
28.2113757392
 30
0.0
 40
0.2500000000000148
100
AcDbArc
 50
90.0
 51
226.0963182204
  0
LINE
  5
202
330
1F
100
AcDbEntity
  8
0
  6
Continuous
 62
     7
370
    25
100
AcDbLine
 10
70.3091907315
 20
28.4613757392
 30
0.0
 11
72.4905805476
 21
28.4613757392
 31
0.0
  0
LINE
  5
203
330
1F
100
AcDbEntity
  8
0
  6
Continuous
 62
     7
370
    25
100
AcDbLine
 10
72.4905805476
 20
28.4613757392
 30
0.0
 11
73.2740796527
 21
27.7073007258
 31
0.0
  0
LINE
  5
204
330
1F
100
AcDbEntity
  8
0
  6
Continuous
 62
     7
370
    25
100
AcDbLine
 10
73.2740796527
 20
27.7073007258
 30
0.0
 11
73.3575382859
 21
25.5275080324
 31
0.0
  0
ARC
  5
205
330
1F
100
AcDbEntity
  8
0
  6
Continuous
 62
     7
370
    25
100
AcDbCircle
 10
73.1077213254
 20
25.5179431861
 30
0.0
 40
0.2499999999999907
100
AcDbArc
 50
226.0963182204
 51
2.1926364407
  0
LINE
  5
206
330
1F
100
AcDbEntity
  8
0
  6
Continuous
 62
     7
370
    25
100
AcDbLine
 10
72.9343592932
 20
25.3378165479
 30
0.0
 11
72.4905805476
 21
25.7649293058
 31
0.0
  0
LINE
  5
207
330
1F
100
AcDbEntity
  8
0
  6
Continuous
 62
     7
370
    25
100
AcDbLine
 10
72.4905805476
 20
25.7649293058
 30
0.0
 11
71.4374243598
 21
24.6706788452
 31
0.0
  0
ARC
  5
208
330
1F
100
AcDbEntity
  8
0
  6
Continuous
 62
     7
370
    25
100
AcDbCircle
 10
67.5
 20
22.4919890071
 30
0.0
 40
4.500000000000613
100
AcDbArc
 50
333.2356228001
 51
28.9570136406
  0
LINE
  5
209
330
1F
100
AcDbEntity
  8
0
  6
Continuous
 62
     7
370
    25
100
AcDbLine
 10
71.5178968755
 20
20.4655377499
 30
0.0
 11
72.612147336
 21
19.4123815621
 31
0.0
  0
LINE
  5
20A
330
1F
100
AcDbEntity
  8
0
  6
Continuous
 62
     7
370
    25
100
AcDbLine
 10
72.612147336
 20
19.4123815621
 30
0.0
 11
73.0392600939
 21
19.8561603078
 31
0.0
  0
ARC
  5
20B
330
1F
100
AcDbEntity
  8
0
  6
Continuous
 62
     7
370
    25
100
AcDbCircle
 10
73.2193867321
 20
19.6827982756
 30
0.0
 40
0.2499999999999948
100
AcDbArc
 50
0.0
 51
136.0963182204
  0
LINE
  5
20C
330
1F
100
AcDbEntity
  8
0
  6
Continuous
 62
     7
370
    25
100
AcDbLine
 10
73.4693867321
 20
19.6827982756
 30
0.0
 11
73.4693867321
 21
17.5014084595
 31
0.0
  0
LINE
  5
20D
330
1F
100
AcDbEntity
  8
0
  6
Continuous
 62
     7
370
    25
100
AcDbLine
 10
73.4693867321
 20
17.5014084595
 30
0.0
 11
72.7153117186
 21
16.7179093543
 31
0.0
  0
LINE
  5
20E
330
1F
100
AcDbEntity
  8
0
  6
Continuous
 62
     7
370
    25
100
AcDbLine
 10
72.7153117186
 20
16.7179093543
 30
0.0
 11
70.5355190253
 21
16.6344507212
 31
0.0
  0
ARC
  5
20F
330
1F
100
AcDbEntity
  8
0
  6
Continuous
 62
     7
370
    25
100
AcDbCircle
 10
70.525954179
 20
16.8842676816
 30
0.0
 40
0.2499999999999919
100
AcDbArc
 50
136.0963182204
 51
272.1926364406
  0
LINE
  5
210
330
1F
100
AcDbEntity
  8
0
  6
Continuous
 62
     7
370
    25
100
AcDbLine
 10
70.3458275408
 20
17.0576297139
 30
0.0
 11
70.7729402986
 21
17.5014084595
 31
0.0
  0
LINE
  5
211
330
1F
100
AcDbEntity
  8
0
  6
Continuous
 62
     7
370
    25
100
AcDbLine
 10
70.7729402986
 20
17.5014084595
 30
0.0
 11
69.6786898381
 21
18.5545646473
 31
0.0
  0
ARC
  5
212
330
1F
100
AcDbEntity
  8
0
  6
Continuous
 62
     7
370
    25
100
AcDbCircle
 10
67.5
 20
22.4919890071
 30
0.0
 40
4.500000000002078
100
AcDbArc
 50
241.0429863594
 51
298.9570136406
  0
LINE
  5
213
330
1F
100
AcDbEntity
  8
0
  6
Continuous
 62
     7
370
    25
100
AcDbLine
 10
64.2270597013
 20
17.5014084595
 30
0.0
 11
65.3213101618
 21
18.5545646473
 31
0.0
  0
LINE
  5
214
330
1F
100
AcDbEntity
  8
0
  6
Continuous
 62
     7
370
    25
100
AcDbLine
 10
64.6541724592
 20
17.0576297139
 30
0.0
 11
64.2270597013
 21
17.5014084595
 31
0.0
  0
ARC
  5
215
330
1F
100
AcDbEntity
  8
0
  6
Continuous
 62
     7
370
    25
100
AcDbCircle
 10
64.474045821
 20
16.8842676816
 30
0.0
 40
0.2499999999999993
100
AcDbArc
 50
267.8073635595
 51
43.9036817796
  0
LINE
  5
216
330
1F
100
AcDbEntity
  8
0
  6
Continuous
 62
     7
370
    25
100
AcDbLine
 10
62.2846882813
 20
16.7179093543
 30
0.0
 11
64.4644809747
 21
16.6344507212
 31
0.0
  0
LINE
  5
217
330
1F
100
AcDbEntity
  8
0
  6
Continuous
 62
     7
370
    25
100
AcDbLine
 10
61.5306132679
 20
17.5014084595
 30
0.0
 11
62.2846882813
 21
16.7179093543
 31
0.0
  0
LINE
  5
218
330
1F
100
AcDbEntity
  8
0
  6
Continuous
 62
     7
370
    25
100
AcDbLine
 10
61.5306132679
 20
19.6827982756
 30
0.0
 11
61.5306132679
 21
17.5014084595
 31
0.0
  0
ARC
  5
219
330
1F
100
AcDbEntity
  8
0
  6
Continuous
 62
     7
370
    25
100
AcDbCircle
 10
61.7806132679
 20
19.6827982756
 30
0.0
 40
0.2499999999999919
100
AcDbArc
 50
43.9036817796
 51
180.0
  0
LINE
  5
21A
330
1F
100
AcDbEntity
  8
0
  6
Continuous
 62
     7
370
    25
100
AcDbLine
 10
62.3878526639
 20
19.4123815621
 30
0.0
 11
61.9607399061
 21
19.8561603078
 31
0.0
  0
LINE
  5
21B
330
1F
100
AcDbEntity
  8
0
  6
Continuous
 62
     7
370
    25
100
AcDbLine
 10
63.4821031245
 20
20.4655377499
 30
0.0
 11
62.3878526639
 21
19.4123815621
 31
0.0
  0
ARC
  5
21C
330
1F
100
AcDbEntity
  8
0
  6
Continuous
 62
     7
370
    25
100
AcDbCircle
 10
67.5
 20
22.4919890071
 30
0.0
 40
4.500000000000608
100
AcDbArc
 50
151.0429863594
 51
206.7643771999
  0
LINE
  5
21D
330
1F
100
AcDbEntity
  8
0
  6
Continuous
 62
     7
370
    25
100
AcDbLine
 10
62.5094194524
 20
25.7649293058
 30
0.0
 11
63.5625756402
 21
24.6706788452
 31
0.0
  0
LINE
  5
21E
330
1F
100
AcDbEntity
  8
0
  6
Continuous
 62
     7
370
    25
100
AcDbLine
 10
62.0656407067
 20
25.3378165479
 30
0.0
 11
62.5094194524
 21
25.7649293058
 31
0.0
  0
ARC
  5
21F
330
1F
100
AcDbEntity
  8
0
  6
Continuous
 62
     7
370
    25
100
AcDbCircle
 10
61.8922786745
 20
25.5179431861
 30
0.0
 40
0.2499999999999899
100
AcDbArc
 50
177.8073635593
 51
313.9036817796
  0
LINE
  5
220
330
1F
100
AcDbEntity
  8
0
  6
Continuous
 62
     7
370
    25
100
AcDbLine
 10
61.7259203472
 20
27.7073007258
 30
0.0
 11
61.6424617141
 21
25.5275080324
 31
0.0
  0
LINE
  5
221
330
1F
100
AcDbEntity
  8
0
  6
Continuous
 62
     7
370
    25
100
AcDbLine
 10
62.5094194524
 20
28.4613757392
 30
0.0
 11
61.7259203472
 21
27.7073007258
 31
0.0
  0
LINE
  5
222
330
1F
100
AcDbEntity
  8
0
  6
Continuous
 62
     7
370
    25
100
AcDbLine
 10
64.6908092684
 20
28.4613757392
 30
0.0
 11
62.5094194524
 21
28.4613757392
 31
0.0
  0
ARC
  5
223
330
1F
100
AcDbEntity
  8
0
  6
Continuous
 62
     7
370
    25
100
AcDbCircle
 10
6.1647173374
 20
6.1647173374
 30
0.0
 40
3.500000000000247
100
AcDbArc
 50
333.3176984112
 51
26.6823015888
  0
LINE
  5
224
330
1F
100
AcDbEntity
  8
0
  6
Continuous
 62
     7
370
    25
100
AcDbLine
 10
9.2920028216
 20
4.5930667718
 30
0.0
 11
9.7736801777
 21
4.1113894157
 31
0.0
  0
ARC
  5
225
330
1F
100
AcDbEntity
  8
0
  6
Continuous
 62
     7
370
    25
100
AcDbCircle
 10
8.9958627184
 20
3.3335719564
 30
0.0
 40
1.100000000000001
100
AcDbArc
 50
225.0
 51
45.0
  0
LINE
  5
226
330
1F
100
AcDbEntity
  8
0
  6
Continuous
 62
     7
370
    25
100
AcDbLine
 10
8.2180452591
 20
2.555754497
 30
0.0
 11
7.736367903
 21
3.0374318532
 31
0.0
  0
ARC
  5
227
330
1F
100
AcDbEntity
  8
0
  6
Continuous
 62
     7
370
    25
100
AcDbCircle
 10
6.1647173374
 20
6.1647173374
 30
0.0
 40
3.500000000000057
100
AcDbArc
 50
243.3176984112
 51
296.6823015888
  0
LINE
  5
228
330
1F
100
AcDbEntity
  8
0
  6
Continuous
 62
     7
370
    25
100
AcDbLine
 10
4.5930667718
 20
3.0374318532
 30
0.0
 11
4.1113894157
 21
2.5557544971
 31
0.0
  0
ARC
  5
229
330
1F
100
AcDbEntity
  8
0
  6
Continuous
 62
     7
370
    25
100
AcDbCircle
 10
3.3335719564
 20
3.3335719564
 30
0.0
 40
1.100000000000085
100
AcDbArc
 50
135.0000000001
 51
315.0
  0
LINE
  5
22A
330
1F
100
AcDbEntity
  8
0
  6
Continuous
 62
     7
370
    25
100
AcDbLine
 10
2.555754497
 20
4.1113894157
 30
0.0
 11
3.0374318532
 21
4.5930667718
 31
0.0
  0
ARC
  5
22B
330
1F
100
AcDbEntity
  8
0
  6
Continuous
 62
     7
370
    25
100
AcDbCircle
 10
6.1647173374
 20
6.1647173374
 30
0.0
 40
3.499999999999752
100
AcDbArc
 50
153.3176984112
 51
206.6823015888
  0
LINE
  5
22C
330
1F
100
AcDbEntity
  8
0
  6
Continuous
 62
     7
370
    25
100
AcDbLine
 10
3.0374318532
 20
7.736367903
 30
0.0
 11
2.555754497
 21
8.2180452591
 31
0.0
  0
ARC
  5
22D
330
1F
100
AcDbEntity
  8
0
  6
Continuous
 62
     7
370
    25
100
AcDbCircle
 10
3.3335719564
 20
8.9958627184
 30
0.0
 40
1.100000000000002
100
AcDbArc
 50
45.0
 51
225.0
  0
LINE
  5
22E
330
1F
100
AcDbEntity
  8
0
  6
Continuous
 62
     7
370
    25
100
AcDbLine
 10
4.1113894157
 20
9.7736801777
 30
0.0
 11
4.5930667718
 21
9.2920028216
 31
0.0
  0
ARC
  5
22F
330
1F
100
AcDbEntity
  8
0
  6
Continuous
 62
     7
370
    25
100
AcDbCircle
 10
6.1647173374
 20
6.1647173374
 30
0.0
 40
3.499999999999999
100
AcDbArc
 50
63.3176984112
 51
116.6823015888
  0
LINE
  5
230
330
1F
100
AcDbEntity
  8
0
  6
Continuous
 62
     7
370
    25
100
AcDbLine
 10
7.736367903
 20
9.2920028216
 30
0.0
 11
8.2180452591
 21
9.7736801777
 31
0.0
  0
ARC
  5
231
330
1F
100
AcDbEntity
  8
0
  6
Continuous
 62
     7
370
    25
100
AcDbCircle
 10
8.9958627184
 20
8.9958627184
 30
0.0
 40
1.100000000000004
100
AcDbArc
 50
315.0
 51
135.0
  0
LINE
  5
232
330
1F
100
AcDbEntity
  8
0
  6
Continuous
 62
     7
370
    25
100
AcDbLine
 10
9.7736801777
 20
8.2180452591
 30
0.0
 11
9.2920028216
 21
7.736367903
 31
0.0
  0
ARC
  5
233
330
1F
100
AcDbEntity
  8
0
  6
Continuous
 62
     7
370
    25
100
AcDbCircle
 10
4.6704486498
 20
53.3723016556
 30
0.0
 40
1.0
100
AcDbArc
 50
90.0
 51
180.0
  0
LINE
  5
234
330
1F
100
AcDbEntity
  8
0
  6
Continuous
 62
     7
370
    25
100
AcDbLine
 10
10.6979616589
 20
54.3723016556
 30
0.0
 11
4.6704486498
 21
54.3723016556
 31
0.0
  0
ARC
  5
235
330
1F
100
AcDbEntity
  8
0
  6
Continuous
 62
     7
370
    25
100
AcDbCircle
 10
10.6979616589
 20
55.3723016556
 30
0.0
 40
1.0
100
AcDbArc
 50
270.0
 51
315.5461580303
  0
LINE
  5
236
330
1F
100
AcDbEntity
  8
0
  6
Continuous
 62
     7
370
    25
100
AcDbLine
 10
15.1130649549
 20
58.4445001747
 30
0.0
 11
11.4117765358
 21
54.6719672201
 31
0.0
  0
ARC
  5
237
330
1F
100
AcDbEntity
  8
0
  6
Continuous
 62
     7
370
    25
100
AcDbCircle
 10
15.8268798318
 20
57.7441657392
 30
0.0
 40
0.9999999999999982
100
AcDbArc
 50
90.0
 51
135.5461580303
  0
LINE
  5
238
330
1F
100
AcDbEntity
  8
0
  6
Continuous
 62
     7
370
    25
100
AcDbLine
 10
21.516029895
 20
58.7441657392
 30
0.0
 11
15.8268798318
 21
58.7441657392
 31
0.0
  0
LINE
  5
239
330
1F
100
AcDbEntity
  8
0
  6
Continuous
 62
     7
370
    25
100
AcDbLine
 10
22.2663546724
 20
59.4944905166
 30
0.0
 11
21.516029895
 21
58.7441657392
 31
0.0
  0
LINE
  5
23A
330
1F
100
AcDbEntity
  8
0
  6
Continuous
 62
     7
370
    25
100
AcDbLine
 10
23.0166794498
 20
58.7441657392
 30
0.0
 11
22.2663546724
 21
59.4944905166
 31
0.0
  0
LINE
  5
23B
330
1F
100
AcDbEntity
  8
0
  6
Continuous
 62
     7
370
    25
100
AcDbLine
 10
26.2536097045
 20
58.7441657392
 30
0.0
 11
23.0166794498
 21
58.7441657392
 31
0.0
  0
ARC
  5
23C
330
1F
100
AcDbEntity
  8
0
  6
Continuous
 62
     7
370
    25
100
AcDbCircle
 10
26.2536097045
 20
56.7441657392
 30
0.0
 40
2.0
100
AcDbArc
 50
0.0
 51
90.0
  0
LINE
  5
23D
330
1F
100
AcDbEntity
  8
0
  6
Continuous
 62
     7
370
    25
100
AcDbLine
 10
28.2536097045
 20
33.261320179
 30
0.0
 11
28.2536097045
 21
56.7441657392
 31
0.0
  0
ARC
  5
23E
330
1F
100
AcDbEntity
  8
0
  6
Continuous
 62
     7
370
    25
100
AcDbCircle
 10
26.2536097045
 20
33.261320179
 30
0.0
 40
2.0
100
AcDbArc
 50
270.0
 51
0.0
  0
LINE
  5
23F
330
1F
100
AcDbEntity
  8
0
  6
Continuous
 62
     7
370
    25
100
AcDbLine
 10
23.0166794498
 20
31.261320179
 30
0.0
 11
26.2536097045
 21
31.261320179
 31
0.0
  0
LINE
  5
240
330
1F
100
AcDbEntity
  8
0
  6
Continuous
 62
     7
370
    25
100
AcDbLine
 10
22.2814988314
 20
30.5261395605
 30
0.0
 11
23.0166794498
 21
31.261320179
 31
0.0
  0
LINE
  5
241
330
1F
100
AcDbEntity
  8
0
  6
Continuous
 62
     7
370
    25
100
AcDbLine
 10
21.5384057529
 20
31.2692326389
 30
0.0
 11
22.2814988314
 21
30.5261395605
 31
0.0
  0
LINE
  5
242
330
1F
100
AcDbEntity
  8
0
  6
Continuous
 62
     7
370
    25
100
AcDbLine
 10
15.8492556897
 20
31.2692326389
 30
0.0
 11
21.5384057529
 21
31.2692326389
 31
0.0
  0
ARC
  5
243
330
1F
100
AcDbEntity
  8
0
  6
Continuous
 62
     7
370
    25
100
AcDbCircle
 10
15.8492556897
 20
32.2692326389
 30
0.0
 40
1.0
100
AcDbArc
 50
225.0
 51
270.0
  0
LINE
  5
244
330
1F
100
AcDbEntity
  8
0
  6
Continuous
 62
     7
370
    25
100
AcDbLine
 10
11.4050684401
 20
35.2992063262
 30
0.0
 11
15.1421489086
 21
31.5621258578
 31
0.0
  0
ARC
  5
245
330
1F
100
AcDbEntity
  8
0
  6
Continuous
 62
     7
370
    25
100
AcDbCircle
 10
10.6979616589
 20
34.592099545
 30
0.0
 40
1.0
100
AcDbArc
 50
45.0
 51
90.0
  0
LINE
  5
246
330
1F
100
AcDbEntity
  8
0
  6
Continuous
 62
     7
370
    25
100
AcDbLine
 10
4.6704486498
 20
35.592099545
 30
0.0
 11
10.6979616589
 21
35.592099545
 31
0.0
  0
ARC
  5
247
330
1F
100
AcDbEntity
  8
0
  6
Continuous
 62
     7
370
    25
100
AcDbCircle
 10
4.6704486498
 20
36.592099545
 30
0.0
 40
1.0
100
AcDbArc
 50
180.0
 51
270.0
  0
LINE
  5
248
330
1F
100
AcDbEntity
  8
0
  6
Continuous
 62
     7
370
    25
100
AcDbLine
 10
3.6704486498
 20
53.3723016556
 30
0.0
 11
3.6704486498
 21
36.592099545
 31
0.0
  0
LINE
  5
249
330
1F
100
AcDbEntity
  8
0
  6
Continuous
 62
     7
370
    25
100
AcDbLine
 10
24.562759019
 20
18.4813836581
 30
0.0
 11
25.6177425056
 21
17.3888948164
 31
0.0
  0
ARC
  5
24A
330
1F
100
AcDbEntity
  8
0
  6
Continuous
 62
     7
370
    25
100
AcDbCircle
 10
22.5295956684
 20
22.4958882091
 30
0.0
 40
4.500000000000981
100
AcDbArc
 50
241.1387421643
 51
296.8601330047
  0
LINE
  5
24B
330
1F
100
AcDbEntity
  8
0
  6
Continuous
 62
     7
370
    25
100
AcDbLine
 10
19.2650004647
 20
17.4998447188
 30
0.0
 11
20.3574893063
 21
18.5548282055
 31
0.0
  0
LINE
  5
24C
330
1F
100
AcDbEntity
  8
0
  6
Continuous
 62
     7
370
    25
100
AcDbLine
 10
19.6928542928
 20
17.0567804065
 30
0.0
 11
19.2650004647
 21
17.4998447188
 31
0.0
  0
ARC
  5
24D
330
1F
100
AcDbEntity
  8
0
  6
Continuous
 62
     7
370
    25
100
AcDbCircle
 10
19.513017638
 20
16.8831175791
 30
0.0
 40
0.2500000000000064
100
AcDbArc
 50
267.9031193641
 51
43.9994375844
  0
LINE
  5
24E
330
1F
100
AcDbEntity
  8
0
  6
Continuous
 62
     7
370
    25
100
AcDbLine
 10
17.3239411828
 20
16.7131005132
 30
0.0
 11
19.5038703125
 21
16.6332849823
 31
0.0
  0
LINE
  5
24F
330
1F
100
AcDbEntity
  8
0
  6
Continuous
 62
     7
370
    25
100
AcDbLine
 10
16.568557797
 20
17.4953382738
 30
0.0
 11
17.3239411828
 21
16.7131005132
 31
0.0
  0
LINE
  5
250
330
1F
100
AcDbEntity
  8
0
  6
Continuous
 62
     7
370
    25
100
AcDbLine
 10
16.5649121421
 20
19.6767250434
 30
0.0
 11
16.568557797
 21
17.4953382738
 31
0.0
  0
ARC
  5
251
330
1F
100
AcDbEntity
  8
0
  6
Continuous
 62
     7
370
    25
100
AcDbCircle
 10
16.8149117929
 20
19.6771428568
 30
0.0
 40
0.2499999999999939
100
AcDbArc
 50
43.9994375844
 51
180.0957558048
  0
LINE
  5
252
330
1F
100
AcDbEntity
  8
0
  6
Continuous
 62
     7
370
    25
100
AcDbLine
 10
17.4226022758
 20
19.4077413718
 30
0.0
 11
16.9947484477
 21
19.8508056841
 31
0.0
  0
LINE
  5
253
330
1F
100
AcDbEntity
  8
0
  6
Continuous
 62
     7
370
    25
100
AcDbLine
 10
18.5150911174
 20
20.4627248585
 30
0.0
 11
17.4226022758
 21
19.4077413718
 31
0.0
  0
ARC
  5
254
330
1F
100
AcDbEntity
  8
0
  6
Continuous
 62
     7
370
    25
100
AcDbCircle
 10
22.5295956684
 20
22.4958882091
 30
0.0
 40
4.500000000001024
100
AcDbArc
 50
151.1387421642
 51
206.8601330047
  0
LINE
  5
255
330
1F
100
AcDbEntity
  8
0
  6
Continuous
 62
     7
370
    25
100
AcDbLine
 10
17.5335521781
 20
25.7604834127
 30
0.0
 11
18.5885356648
 21
24.6679945711
 31
0.0
  0
LINE
  5
256
330
1F
100
AcDbEntity
  8
0
  6
Continuous
 62
     7
370
    25
100
AcDbLine
 10
17.0904878658
 20
25.3326295847
 30
0.0
 11
17.5335521781
 21
25.7604834127
 31
0.0
  0
ARC
  5
257
330
1F
100
AcDbEntity
  8
0
  6
Continuous
 62
     7
370
    25
100
AcDbCircle
 10
16.9168250385
 20
25.5124662394
 30
0.0
 40
0.2500000000000144
100
AcDbArc
 50
177.9031193641
 51
313.9994375844
  0
LINE
  5
258
330
1F
100
AcDbEntity
  8
0
  6
Continuous
 62
     7
370
    25
100
AcDbLine
 10
16.7468079725
 20
27.7015426947
 30
0.0
 11
16.6669924416
 21
25.521613565
 31
0.0
  0
LINE
  5
259
330
1F
100
AcDbEntity
  8
0
  6
Continuous
 62
     7
370
    25
100
AcDbLine
 10
17.5290457331
 20
28.4569260805
 30
0.0
 11
16.7468079725
 21
27.7015426947
 31
0.0
  0
LINE
  5
25A
330
1F
100
AcDbEntity
  8
0
  6
Continuous
 62
     7
370
    25
100
AcDbLine
 10
19.7104325028
 20
28.4605717354
 30
0.0
 11
17.5290457331
 21
28.4569260805
 31
0.0
  0
ARC
  5
25B
330
1F
100
AcDbEntity
  8
0
  6
Continuous
 62
     7
370
    25
100
AcDbCircle
 10
19.7108503161
 20
28.2105720845
 30
0.0
 40
0.2499999999999965
100
AcDbArc
 50
313.9994375844
 51
90.0957558048
  0
LINE
  5
25C
330
1F
100
AcDbEntity
  8
0
  6
Continuous
 62
     7
370
    25
100
AcDbLine
 10
19.4414488311
 20
27.6028816017
 30
0.0
 11
19.8845131434
 21
28.0307354297
 31
0.0
  0
LINE
  5
25D
330
1F
100
AcDbEntity
  8
0
  6
Continuous
 62
     7
370
    25
100
AcDbLine
 10
20.4964323178
 20
26.5103927601
 30
0.0
 11
19.4414488311
 21
27.6028816017
 31
0.0
  0
ARC
  5
25E
330
1F
100
AcDbEntity
  8
0
  6
Continuous
 62
     7
370
    25
100
AcDbCircle
 10
22.5295956684
 20
22.4958882091
 30
0.0
 40
4.500000000001044
100
AcDbArc
 50
61.1387421642
 51
116.8601330047
  0
LINE
  5
25F
330
1F
100
AcDbEntity
  8
0
  6
Continuous
 62
     7
370
    25
100
AcDbLine
 10
25.7941908721
 20
27.4919316993
 30
0.0
 11
24.7017020304
 21
26.4369482126
 31
0.0
  0
LINE
  5
260
330
1F
100
AcDbEntity
  8
0
  6
Continuous
 62
     7
370
    25
100
AcDbLine
 10
25.366337044
 20
27.9349960116
 30
0.0
 11
25.7941908721
 21
27.4919316993
 31
0.0
  0
ARC
  5
261
330
1F
100
AcDbEntity
  8
0
  6
Continuous
 62
     7
370
    25
100
AcDbCircle
 10
25.5461736988
 20
28.108658839
 30
0.0
 40
0.2500000000000042
100
AcDbArc
 50
87.9031193641
 51
223.9994375844
  0
LINE
  5
262
330
1F
100
AcDbEntity
  8
0
  6
Continuous
 62
     7
370
    25
100
AcDbLine
 10
27.735250154
 20
28.2786759049
 30
0.0
 11
25.5553210243
 21
28.3584914358
 31
0.0
  0
LINE
  5
263
330
1F
100
AcDbEntity
  8
0
  6
Continuous
 62
     7
370
    25
100
AcDbLine
 10
28.4906335398
 20
27.4964381443
 30
0.0
 11
27.735250154
 21
28.2786759049
 31
0.0
  0
LINE
  5
264
330
1F
100
AcDbEntity
  8
0
  6
Continuous
 62
     7
370
    25
100
AcDbLine
 10
28.4942791947
 20
25.3150513747
 30
0.0
 11
28.4906335398
 21
27.4964381443
 31
0.0
  0
ARC
  5
265
330
1F
100
AcDbEntity
  8
0
  6
Continuous
 62
     7
370
    25
100
AcDbCircle
 10
28.2442795438
 20
25.3146335613
 30
0.0
 40
0.2499999999999964
100
AcDbArc
 50
223.9994375844
 51
0.0957558048
  0
LINE
  5
266
330
1F
100
AcDbEntity
  8
0
  6
Continuous
 62
     7
370
    25
100
AcDbLine
 10
27.636589061
 20
25.5840350463
 30
0.0
 11
28.0644428891
 21
25.140970734
 31
0.0
  0
LINE
  5
267
330
1F
100
AcDbEntity
  8
0
  6
Continuous
 62
     7
370
    25
100
AcDbLine
 10
26.5441002194
 20
24.5290515596
 30
0.0
 11
27.636589061
 21
25.5840350463
 31
0.0
  0
ARC
  5
268
330
1F
100
AcDbEntity
  8
0
  6
Continuous
 62
     7
370
    25
100
AcDbCircle
 10
22.5295956684
 20
22.4958882091
 30
0.0
 40
4.500000000001116
100
AcDbArc
 50
331.1387421642
 51
26.8601330046
  0
LINE
  5
269
330
1F
100
AcDbEntity
  8
0
  6
Continuous
 62
     7
370
    25
100
AcDbLine
 10
27.5256391587
 20
19.2312930054
 30
0.0
 11
26.470655672
 21
20.323781847
 31
0.0
  0
LINE
  5
26A
330
1F
100
AcDbEntity
  8
0
  6
Continuous
 62
     7
370
    25
100
AcDbLine
 10
27.968703471
 20
19.6591468334
 30
0.0
 11
27.5256391587
 21
19.2312930054
 31
0.0
  0
ARC
  5
26B
330
1F
100
AcDbEntity
  8
0
  6
Continuous
 62
     7
370
    25
100
AcDbCircle
 10
28.1423662983
 20
19.4793101787
 30
0.0
 40
0.2499999999999981
100
AcDbArc
 50
357.9031193641
 51
133.9994375844
  0
LINE
  5
26C
330
1F
100
AcDbEntity
  8
0
  6
Continuous
 62
     7
370
    25
100
AcDbLine
 10
28.3123833643
 20
17.2902337235
 30
0.0
 11
28.3921988951
 21
19.4701628532
 31
0.0
  0
LINE
  5
26D
330
1F
100
AcDbEntity
  8
0
  6
Continuous
 62
     7
370
    25
100
AcDbLine
 10
27.5301456036
 20
16.5348503377
 30
0.0
 11
28.3123833643
 21
17.2902337235
 31
0.0
  0
LINE
  5
26E
330
1F
100
AcDbEntity
  8
0
  6
Continuous
 62
     7
370
    25
100
AcDbLine
 10
25.348758834
 20
16.5312046827
 30
0.0
 11
27.5301456036
 21
16.5348503377
 31
0.0
  0
ARC
  5
26F
330
1F
100
AcDbEntity
  8
0
  6
Continuous
 62
     7
370
    25
100
AcDbCircle
 10
25.3483410207
 20
16.7812043336
 30
0.0
 40
0.2500000000000001
100
AcDbArc
 50
133.9994375844
 51
270.0957558048
  0
LINE
  5
270
330
1F
100
AcDbEntity
  8
0
  6
Continuous
 62
     7
370
    25
100
AcDbLine
 10
25.6177425056
 20
17.3888948164
 30
0.0
 11
25.1746781933
 21
16.9610409884
 31
0.0
  0
LINE
  5
271
330
1F
100
AcDbEntity
  8
0
  6
Continuous
 62
     7
370
    25
100
AcDbLine
 10
31.261320179
 20
23.0166794498
 30
0.0
 11
31.261320179
 21
26.2536097045
 31
0.0
  0
ARC
  5
272
330
1F
100
AcDbEntity
  8
0
  6
Continuous
 62
     7
370
    25
100
AcDbCircle
 10
33.261320179
 20
26.2536097045
 30
0.0
 40
2.000000000000043
100
AcDbArc
 50
90.0
 51
180.0
  0
LINE
  5
273
330
1F
100
AcDbEntity
  8
0
  6
Continuous
 62
     7
370
    25
100
AcDbLine
 10
33.261320179
 20
28.2536097045
 30
0.0
 11
56.7441657392
 21
28.2536097045
 31
0.0
  0
ARC
  5
274
330
1F
100
AcDbEntity
  8
0
  6
Continuous
 62
     7
370
    25
100
AcDbCircle
 10
56.7441657392
 20
26.2536097045
 30
0.0
 40
2.000000000000043
100
AcDbArc
 50
0.0
 51
90.0
  0
LINE
  5
275
330
1F
100
AcDbEntity
  8
0
  6
Continuous
 62
     7
370
    25
100
AcDbLine
 10
58.7441657392
 20
26.2536097045
 30
0.0
 11
58.7441657392
 21
23.0166794498
 31
0.0
  0
LINE
  5
276
330
1F
100
AcDbEntity
  8
0
  6
Continuous
 62
     7
370
    25
100
AcDbLine
 10
58.7441657392
 20
23.0166794498
 30
0.0
 11
59.4944905166
 21
22.2663546724
 31
0.0
  0
LINE
  5
277
330
1F
100
AcDbEntity
  8
0
  6
Continuous
 62
     7
370
    25
100
AcDbLine
 10
59.4944905166
 20
22.2663546724
 30
0.0
 11
58.7441657392
 21
21.516029895
 31
0.0
  0
LINE
  5
278
330
1F
100
AcDbEntity
  8
0
  6
Continuous
 62
     7
370
    25
100
AcDbLine
 10
58.7441657392
 20
21.516029895
 30
0.0
 11
58.7441657392
 21
15.8268798318
 31
0.0
  0
ARC
  5
279
330
1F
100
AcDbEntity
  8
0
  6
Continuous
 62
     7
370
    25
100
AcDbCircle
 10
57.7441657392
 20
15.8268798318
 30
0.0
 40
1.000000000000028
100
AcDbArc
 50
314.4538419697
 51
0.0
  0
LINE
  5
27A
330
1F
100
AcDbEntity
  8
0
  6
Continuous
 62
     7
370
    25
100
AcDbLine
 10
58.4445001747
 20
15.1130649549
 30
0.0
 11
54.6719672201
 21
11.4117765358
 31
0.0
  0
ARC
  5
27B
330
1F
100
AcDbEntity
  8
0
  6
Continuous
 62
     7
370
    25
100
AcDbCircle
 10
55.3723016556
 20
10.6979616589
 30
0.0
 40
1.0
100
AcDbArc
 50
134.4538419697
 51
180.0
  0
LINE
  5
27C
330
1F
100
AcDbEntity
  8
0
  6
Continuous
 62
     7
370
    25
100
AcDbLine
 10
54.3723016556
 20
10.6979616589
 30
0.0
 11
54.3723016556
 21
4.6704486498
 31
0.0
  0
ARC
  5
27D
330
1F
100
AcDbEntity
  8
0
  6
Continuous
 62
     7
370
    25
100
AcDbCircle
 10
53.3723016556
 20
4.6704486498
 30
0.0
 40
0.9999999999999938
100
AcDbArc
 50
270.0
 51
0.0
  0
LINE
  5
27E
330
1F
100
AcDbEntity
  8
0
  6
Continuous
 62
     7
370
    25
100
AcDbLine
 10
53.3723016556
 20
3.6704486498
 30
0.0
 11
36.592099545
 21
3.6704486498
 31
0.0
  0
ARC
  5
27F
330
1F
100
AcDbEntity
  8
0
  6
Continuous
 62
     7
370
    25
100
AcDbCircle
 10
36.592099545
 20
4.6704486498
 30
0.0
 40
1.000000000000015
100
AcDbArc
 50
180.0
 51
270.0
  0
LINE
  5
280
330
1F
100
AcDbEntity
  8
0
  6
Continuous
 62
     7
370
    25
100
AcDbLine
 10
35.592099545
 20
4.6704486498
 30
0.0
 11
35.592099545
 21
10.6979616589
 31
0.0
  0
ARC
  5
281
330
1F
100
AcDbEntity
  8
0
  6
Continuous
 62
     7
370
    25
100
AcDbCircle
 10
34.592099545
 20
10.6979616589
 30
0.0
 40
1.000000000000003
100
AcDbArc
 50
360.0
 51
45.0
  0
LINE
  5
282
330
1F
100
AcDbEntity
  8
0
  6
Continuous
 62
     7
370
    25
100
AcDbLine
 10
35.2992063262
 20
11.4050684401
 30
0.0
 11
31.5621258578
 21
15.1421489086
 31
0.0
  0
ARC
  5
283
330
1F
100
AcDbEntity
  8
0
  6
Continuous
 62
     7
370
    25
100
AcDbCircle
 10
32.2692326389
 20
15.8492556897
 30
0.0
 40
0.9999999999999968
100
AcDbArc
 50
180.0
 51
225.0
  0
LINE
  5
284
330
1F
100
AcDbEntity
  8
0
  6
Continuous
 62
     7
370
    25
100
AcDbLine
 10
31.2692326389
 20
15.8492556897
 30
0.0
 11
31.2692326389
 21
21.5384057529
 31
0.0
  0
LINE
  5
285
330
1F
100
AcDbEntity
  8
0
  6
Continuous
 62
     7
370
    25
100
AcDbLine
 10
31.2692326389
 20
21.5384057529
 30
0.0
 11
30.5261395605
 21
22.2814988314
 31
0.0
  0
LINE
  5
286
330
1F
100
AcDbEntity
  8
0
  6
Continuous
 62
     7
370
    25
100
AcDbLine
 10
30.5261395605
 20
22.2814988314
 30
0.0
 11
31.261320179
 21
23.0166794498
 31
0.0
  0
ARC
  5
287
330
1F
100
AcDbEntity
  8
0
  6
Continuous
 62
     7
370
    25
100
AcDbCircle
 10
128.8352826626
 20
6.1647173374
 30
0.0
 40
3.500000000000249
100
AcDbArc
 50
153.3176984112
 51
206.6823015888
  0
LINE
  5
288
330
1F
100
AcDbEntity
  8
0
  6
Continuous
 62
     7
370
    25
100
AcDbLine
 10
125.2263198222
 20
8.2180452591
 30
0.0
 11
125.7079971784
 21
7.736367903
 31
0.0
  0
ARC
  5
289
330
1F
100
AcDbEntity
  8
0
  6
Continuous
 62
     7
370
    25
100
AcDbCircle
 10
126.0041372815
 20
8.9958627184
 30
0.0
 40
1.100000000000014
100
AcDbArc
 50
45.0
 51
225.0
  0
LINE
  5
28A
330
1F
100
AcDbEntity
  8
0
  6
Continuous
 62
     7
370
    25
100
AcDbLine
 10
127.263632097
 20
9.2920028216
 30
0.0
 11
126.7819547408
 21
9.7736801777
 31
0.0
  0
ARC
  5
28B
330
1F
100
AcDbEntity
  8
0
  6
Continuous
 62
     7
370
    25
100
AcDbCircle
 10
128.8352826626
 20
6.1647173374
 30
0.0
 40
3.499999999999993
100
AcDbArc
 50
63.3176984112
 51
116.6823015888
  0
LINE
  5
28C
330
1F
100
AcDbEntity
  8
0
  6
Continuous
 62
     7
370
    25
100
AcDbLine
 10
130.8886105843
 20
9.7736801777
 30
0.0
 11
130.4069332282
 21
9.2920028216
 31
0.0
  0
ARC
  5
28D
330
1F
100
AcDbEntity
  8
0
  6
Continuous
 62
     7
370
    25
100
AcDbCircle
 10
131.6664280436
 20
8.9958627184
 30
0.0
 40
1.100000000000017
100
AcDbArc
 50
315.0
 51
135.0
  0
LINE
  5
28E
330
1F
100
AcDbEntity
  8
0
  6
Continuous
 62
     7
370
    25
100
AcDbLine
 10
131.9625681468
 20
7.736367903
 30
0.0
 11
132.4442455029
 21
8.2180452591
 31
0.0
  0
ARC
  5
28F
330
1F
100
AcDbEntity
  8
0
  6
Continuous
 62
     7
370
    25
100
AcDbCircle
 10
128.8352826626
 20
6.1647173374
 30
0.0
 40
3.499999999999726
100
AcDbArc
 50
333.3176984112
 51
26.6823015888
  0
LINE
  5
290
330
1F
100
AcDbEntity
  8
0
  6
Continuous
 62
     7
370
    25
100
AcDbLine
 10
132.4442455029
 20
4.1113894157
 30
0.0
 11
131.9625681468
 21
4.5930667718
 31
0.0
  0
ARC
  5
291
330
1F
100
AcDbEntity
  8
0
  6
Continuous
 62
     7
370
    25
100
AcDbCircle
 10
131.6664280436
 20
3.3335719564
 30
0.0
 40
1.100000000000097
100
AcDbArc
 50
225.0
 51
44.9999999999
  0
LINE
  5
292
330
1F
100
AcDbEntity
  8
0
  6
Continuous
 62
     7
370
    25
100
AcDbLine
 10
130.4069332282
 20
3.0374318532
 30
0.0
 11
130.8886105843
 21
2.5557544971
 31
0.0
  0
ARC
  5
293
330
1F
100
AcDbEntity
  8
0
  6
Continuous
 62
     7
370
    25
100
AcDbCircle
 10
128.8352826626
 20
6.1647173374
 30
0.0
 40
3.500000000000055
100
AcDbArc
 50
243.3176984112
 51
296.6823015888
  0
LINE
  5
294
330
1F
100
AcDbEntity
  8
0
  6
Continuous
 62
     7
370
    25
100
AcDbLine
 10
126.7819547408
 20
2.5557544971
 30
0.0
 11
127.263632097
 21
3.0374318532
 31
0.0
  0
ARC
  5
295
330
1F
100
AcDbEntity
  8
0
  6
Continuous
 62
     7
370
    25
100
AcDbCircle
 10
126.0041372815
 20
3.3335719564
 30
0.0
 40
1.100000000000011
100
AcDbArc
 50
135.0
 51
315.0
  0
LINE
  5
296
330
1F
100
AcDbEntity
  8
0
  6
Continuous
 62
     7
370
    25
100
AcDbLine
 10
125.7079971784
 20
4.5930667718
 30
0.0
 11
125.2263198222
 21
4.1113894157
 31
0.0
  0
ARC
  5
297
330
1F
100
AcDbEntity
  8
0
  6
Continuous
 62
     7
370
    25
100
AcDbCircle
 10
130.3295513502
 20
53.3723016556
 30
0.0
 40
1.0
100
AcDbArc
 50
0.0
 51
90.0
  0
LINE
  5
298
330
1F
100
AcDbEntity
  8
0
  6
Continuous
 62
     7
370
    25
100
AcDbLine
 10
131.3295513502
 20
53.3723016556
 30
0.0
 11
131.3295513502
 21
36.592099545
 31
0.0
  0
ARC
  5
299
330
1F
100
AcDbEntity
  8
0
  6
Continuous
 62
     7
370
    25
100
AcDbCircle
 10
130.3295513502
 20
36.592099545
 30
0.0
 40
1.0
100
AcDbArc
 50
270.0
 51
0.0
  0
LINE
  5
29A
330
1F
100
AcDbEntity
  8
0
  6
Continuous
 62
     7
370
    25
100
AcDbLine
 10
130.3295513502
 20
35.592099545
 30
0.0
 11
124.302038341
 21
35.592099545
 31
0.0
  0
ARC
  5
29B
330
1F
100
AcDbEntity
  8
0
  6
Continuous
 62
     7
370
    25
100
AcDbCircle
 10
124.302038341
 20
34.592099545
 30
0.0
 40
1.000000000000003
100
AcDbArc
 50
90.0
 51
135.0
  0
LINE
  5
29C
330
1F
100
AcDbEntity
  8
0
  6
Continuous
 62
     7
370
    25
100
AcDbLine
 10
123.5949315598
 20
35.2992063262
 30
0.0
 11
119.8578510914
 21
31.5621258578
 31
0.0
  0
ARC
  5
29D
330
1F
100
AcDbEntity
  8
0
  6
Continuous
 62
     7
370
    25
100
AcDbCircle
 10
119.1507443102
 20
32.2692326389
 30
0.0
 40
1.0
100
AcDbArc
 50
270.0
 51
315.0
  0
LINE
  5
29E
330
1F
100
AcDbEntity
  8
0
  6
Continuous
 62
     7
370
    25
100
AcDbLine
 10
119.1507443102
 20
31.2692326389
 30
0.0
 11
113.461594247
 21
31.2692326389
 31
0.0
  0
LINE
  5
29F
330
1F
100
AcDbEntity
  8
0
  6
Continuous
 62
     7
370
    25
100
AcDbLine
 10
113.461594247
 20
31.2692326389
 30
0.0
 11
112.7185011686
 21
30.5261395605
 31
0.0
  0
LINE
  5
2A0
330
1F
100
AcDbEntity
  8
0
  6
Continuous
 62
     7
370
    25
100
AcDbLine
 10
112.7185011686
 20
30.5261395605
 30
0.0
 11
111.9833205501
 21
31.261320179
 31
0.0
  0
LINE
  5
2A1
330
1F
100
AcDbEntity
  8
0
  6
Continuous
 62
     7
370
    25
100
AcDbLine
 10
111.9833205501
 20
31.261320179
 30
0.0
 11
108.7463902955
 21
31.261320179
 31
0.0
  0
ARC
  5
2A2
330
1F
100
AcDbEntity
  8
0
  6
Continuous
 62
     7
370
    25
100
AcDbCircle
 10
108.7463902955
 20
33.261320179
 30
0.0
 40
2.0
100
AcDbArc
 50
180.0
 51
270.0
  0
LINE
  5
2A3
330
1F
100
AcDbEntity
  8
0
  6
Continuous
 62
     7
370
    25
100
AcDbLine
 10
106.7463902955
 20
33.261320179
 30
0.0
 11
106.7463902955
 21
56.7441657392
 31
0.0
  0
ARC
  5
2A4
330
1F
100
AcDbEntity
  8
0
  6
Continuous
 62
     7
370
    25
100
AcDbCircle
 10
108.7463902955
 20
56.7441657392
 30
0.0
 40
2.000000000000014
100
AcDbArc
 50
90.0
 51
180.0
  0
LINE
  5
2A5
330
1F
100
AcDbEntity
  8
0
  6
Continuous
 62
     7
370
    25
100
AcDbLine
 10
108.7463902955
 20
58.7441657392
 30
0.0
 11
111.9833205501
 21
58.7441657392
 31
0.0
  0
LINE
  5
2A6
330
1F
100
AcDbEntity
  8
0
  6
Continuous
 62
     7
370
    25
100
AcDbLine
 10
111.9833205501
 20
58.7441657392
 30
0.0
 11
112.7336453275
 21
59.4944905166
 31
0.0
  0
LINE
  5
2A7
330
1F
100
AcDbEntity
  8
0
  6
Continuous
 62
     7
370
    25
100
AcDbLine
 10
112.7336453275
 20
59.4944905166
 30
0.0
 11
113.483970105
 21
58.7441657392
 31
0.0
  0
LINE
  5
2A8
330
1F
100
AcDbEntity
  8
0
  6
Continuous
 62
     7
370
    25
100
AcDbLine
 10
113.483970105
 20
58.7441657392
 30
0.0
 11
119.1731201681
 21
58.7441657392
 31
0.0
  0
ARC
  5
2A9
330
1F
100
AcDbEntity
  8
0
  6
Continuous
 62
     7
370
    25
100
AcDbCircle
 10
119.1731201681
 20
57.7441657392
 30
0.0
 40
1.0
100
AcDbArc
 50
44.4538419698
 51
90.0
  0
LINE
  5
2AA
330
1F
100
AcDbEntity
  8
0
  6
Continuous
 62
     7
370
    25
100
AcDbLine
 10
119.886935045
 20
58.4445001747
 30
0.0
 11
123.5882234641
 21
54.6719672201
 31
0.0
  0
ARC
  5
2AB
330
1F
100
AcDbEntity
  8
0
  6
Continuous
 62
     7
370
    25
100
AcDbCircle
 10
124.302038341
 20
55.3723016556
 30
0.0
 40
1.0
100
AcDbArc
 50
224.4538419698
 51
270.0
  0
LINE
  5
2AC
330
1F
100
AcDbEntity
  8
0
  6
Continuous
 62
     7
370
    25
100
AcDbLine
 10
124.302038341
 20
54.3723016556
 30
0.0
 11
130.3295513502
 21
54.3723016556
 31
0.0
  0
LINE
  5
2AD
330
1F
100
AcDbEntity
  8
0
  6
Continuous
 62
     7
370
    25
100
AcDbLine
 10
110.437240981
 20
18.4813836581
 30
0.0
 11
109.3822574943
 21
17.3888948164
 31
0.0
  0
LINE
  5
2AE
330
1F
100
AcDbEntity
  8
0
  6
Continuous
 62
     7
370
    25
100
AcDbLine
 10
109.3822574943
 20
17.3888948164
 30
0.0
 11
109.8253218066
 21
16.9610409884
 31
0.0
  0
ARC
  5
2AF
330
1F
100
AcDbEntity
  8
0
  6
Continuous
 62
     7
370
    25
100
AcDbCircle
 10
109.6516589793
 20
16.7812043336
 30
0.0
 40
0.2500000000000001
100
AcDbArc
 50
269.9042441952
 51
46.0005624156
  0
LINE
  5
2B0
330
1F
100
AcDbEntity
  8
0
  6
Continuous
 62
     7
370
    25
100
AcDbLine
 10
109.651241166
 20
16.5312046827
 30
0.0
 11
107.4698543963
 21
16.5348503377
 31
0.0
  0
LINE
  5
2B1
330
1F
100
AcDbEntity
  8
0
  6
Continuous
 62
     7
370
    25
100
AcDbLine
 10
107.4698543963
 20
16.5348503377
 30
0.0
 11
106.6876166357
 21
17.2902337235
 31
0.0
  0
LINE
  5
2B2
330
1F
100
AcDbEntity
  8
0
  6
Continuous
 62
     7
370
    25
100
AcDbLine
 10
106.6876166357
 20
17.2902337235
 30
0.0
 11
106.6078011048
 21
19.4701628532
 31
0.0
  0
ARC
  5
2B3
330
1F
100
AcDbEntity
  8
0
  6
Continuous
 62
     7
370
    25
100
AcDbCircle
 10
106.8576337017
 20
19.4793101787
 30
0.0
 40
0.2500000000000013
100
AcDbArc
 50
46.0005624156
 51
182.0968806359
  0
LINE
  5
2B4
330
1F
100
AcDbEntity
  8
0
  6
Continuous
 62
     7
370
    25
100
AcDbLine
 10
107.031296529
 20
19.6591468334
 30
0.0
 11
107.4743608413
 21
19.2312930054
 31
0.0
  0
LINE
  5
2B5
330
1F
100
AcDbEntity
  8
0
  6
Continuous
 62
     7
370
    25
100
AcDbLine
 10
107.4743608413
 20
19.2312930054
 30
0.0
 11
108.529344328
 21
20.323781847
 31
0.0
  0
ARC
  5
2B6
330
1F
100
AcDbEntity
  8
0
  6
Continuous
 62
     7
370
    25
100
AcDbCircle
 10
112.4704043316
 20
22.4958882091
 30
0.0
 40
4.500000000001108
100
AcDbArc
 50
153.1398669954
 51
208.8612578358
  0
LINE
  5
2B7
330
1F
100
AcDbEntity
  8
0
  6
Continuous
 62
     7
370
    25
100
AcDbLine
 10
108.4558997806
 20
24.5290515596
 30
0.0
 11
107.363410939
 21
25.5840350463
 31
0.0
  0
LINE
  5
2B8
330
1F
100
AcDbEntity
  8
0
  6
Continuous
 62
     7
370
    25
100
AcDbLine
 10
107.363410939
 20
25.5840350463
 30
0.0
 11
106.9355571109
 21
25.140970734
 31
0.0
  0
ARC
  5
2B9
330
1F
100
AcDbEntity
  8
0
  6
Continuous
 62
     7
370
    25
100
AcDbCircle
 10
106.7557204561
 20
25.3146335613
 30
0.0
 40
0.2499999999999969
100
AcDbArc
 50
179.9042441952
 51
316.0005624156
  0
LINE
  5
2BA
330
1F
100
AcDbEntity
  8
0
  6
Continuous
 62
     7
370
    25
100
AcDbLine
 10
106.5057208053
 20
25.3150513747
 30
0.0
 11
106.5093664602
 21
27.4964381443
 31
0.0
  0
LINE
  5
2BB
330
1F
100
AcDbEntity
  8
0
  6
Continuous
 62
     7
370
    25
100
AcDbLine
 10
106.5093664602
 20
27.4964381443
 30
0.0
 11
107.264749846
 21
28.2786759049
 31
0.0
  0
LINE
  5
2BC
330
1F
100
AcDbEntity
  8
0
  6
Continuous
 62
     7
370
    25
100
AcDbLine
 10
107.264749846
 20
28.2786759049
 30
0.0
 11
109.4446789757
 21
28.3584914358
 31
0.0
  0
ARC
  5
2BD
330
1F
100
AcDbEntity
  8
0
  6
Continuous
 62
     7
370
    25
100
AcDbCircle
 10
109.4538263012
 20
28.108658839
 30
0.0
 40
0.2500000000000032
100
AcDbArc
 50
316.0005624156
 51
92.0968806359
  0
LINE
  5
2BE
330
1F
100
AcDbEntity
  8
0
  6
Continuous
 62
     7
370
    25
100
AcDbLine
 10
109.633662956
 20
27.9349960116
 30
0.0
 11
109.2058091279
 21
27.4919316993
 31
0.0
  0
LINE
  5
2BF
330
1F
100
AcDbEntity
  8
0
  6
Continuous
 62
     7
370
    25
100
AcDbLine
 10
109.2058091279
 20
27.4919316993
 30
0.0
 11
110.2982979695
 21
26.4369482127
 31
0.0
  0
ARC
  5
2C0
330
1F
100
AcDbEntity
  8
0
  6
Continuous
 62
     7
370
    25
100
AcDbCircle
 10
112.4704043316
 20
22.4958882091
 30
0.0
 40
4.500000000001049
100
AcDbArc
 50
63.1398669953
 51
118.8612578358
  0
LINE
  5
2C1
330
1F
100
AcDbEntity
  8
0
  6
Continuous
 62
     7
370
    25
100
AcDbLine
 10
114.5035676821
 20
26.5103927601
 30
0.0
 11
115.5585511688
 21
27.6028816017
 31
0.0
  0
LINE
  5
2C2
330
1F
100
AcDbEntity
  8
0
  6
Continuous
 62
     7
370
    25
100
AcDbLine
 10
115.5585511688
 20
27.6028816017
 30
0.0
 11
115.1154868565
 21
28.0307354297
 31
0.0
  0
ARC
  5
2C3
330
1F
100
AcDbEntity
  8
0
  6
Continuous
 62
     7
370
    25
100
AcDbCircle
 10
115.2891496839
 20
28.2105720845
 30
0.0
 40
0.2499999999999994
100
AcDbArc
 50
89.9042441952
 51
226.0005624156
  0
LINE
  5
2C4
330
1F
100
AcDbEntity
  8
0
  6
Continuous
 62
     7
370
    25
100
AcDbLine
 10
115.2895674972
 20
28.4605717354
 30
0.0
 11
117.4709542668
 21
28.4569260805
 31
0.0
  0
LINE
  5
2C5
330
1F
100
AcDbEntity
  8
0
  6
Continuous
 62
     7
370
    25
100
AcDbLine
 10
117.4709542668
 20
28.4569260805
 30
0.0
 11
118.2531920275
 21
27.7015426947
 31
0.0
  0
LINE
  5
2C6
330
1F
100
AcDbEntity
  8
0
  6
Continuous
 62
     7
370
    25
100
AcDbLine
 10
118.2531920275
 20
27.7015426947
 30
0.0
 11
118.3330075583
 21
25.521613565
 31
0.0
  0
ARC
  5
2C7
330
1F
100
AcDbEntity
  8
0
  6
Continuous
 62
     7
370
    25
100
AcDbCircle
 10
118.0831749615
 20
25.5124662394
 30
0.0
 40
0.250000000000022
100
AcDbArc
 50
226.0005624156
 51
2.0968806359
  0
LINE
  5
2C8
330
1F
100
AcDbEntity
  8
0
  6
Continuous
 62
     7
370
    25
100
AcDbLine
 10
117.9095121341
 20
25.3326295847
 30
0.0
 11
117.4664478218
 21
25.7604834127
 31
0.0
  0
LINE
  5
2C9
330
1F
100
AcDbEntity
  8
0
  6
Continuous
 62
     7
370
    25
100
AcDbLine
 10
117.4664478218
 20
25.7604834127
 30
0.0
 11
116.4114643352
 21
24.6679945711
 31
0.0
  0
ARC
  5
2CA
330
1F
100
AcDbEntity
  8
0
  6
Continuous
 62
     7
370
    25
100
AcDbCircle
 10
112.4704043316
 20
22.4958882091
 30
0.0
 40
4.500000000001029
100
AcDbArc
 50
333.1398669953
 51
28.8612578358
  0
LINE
  5
2CB
330
1F
100
AcDbEntity
  8
0
  6
Continuous
 62
     7
370
    25
100
AcDbLine
 10
116.4849088826
 20
20.4627248585
 30
0.0
 11
117.5773977242
 21
19.4077413718
 31
0.0
  0
LINE
  5
2CC
330
1F
100
AcDbEntity
  8
0
  6
Continuous
 62
     7
370
    25
100
AcDbLine
 10
117.5773977242
 20
19.4077413718
 30
0.0
 11
118.0052515522
 21
19.8508056841
 31
0.0
  0
ARC
  5
2CD
330
1F
100
AcDbEntity
  8
0
  6
Continuous
 62
     7
370
    25
100
AcDbCircle
 10
118.185088207
 20
19.6771428568
 30
0.0
 40
0.2499999999999941
100
AcDbArc
 50
359.9042441952
 51
136.0005624156
  0
LINE
  5
2CE
330
1F
100
AcDbEntity
  8
0
  6
Continuous
 62
     7
370
    25
100
AcDbLine
 10
118.4350878579
 20
19.6767250434
 30
0.0
 11
118.431442203
 21
17.4953382738
 31
0.0
  0
LINE
  5
2CF
330
1F
100
AcDbEntity
  8
0
  6
Continuous
 62
     7
370
    25
100
AcDbLine
 10
118.431442203
 20
17.4953382738
 30
0.0
 11
117.6760588172
 21
16.7131005132
 31
0.0
  0
LINE
  5
2D0
330
1F
100
AcDbEntity
  8
0
  6
Continuous
 62
     7
370
    25
100
AcDbLine
 10
117.6760588172
 20
16.7131005132
 30
0.0
 11
115.4961296875
 21
16.6332849823
 31
0.0
  0
ARC
  5
2D1
330
1F
100
AcDbEntity
  8
0
  6
Continuous
 62
     7
370
    25
100
AcDbCircle
 10
115.4869823619
 20
16.8831175791
 30
0.0
 40
0.250000000000022
100
AcDbArc
 50
136.0005624156
 51
272.0968806359
  0
LINE
  5
2D2
330
1F
100
AcDbEntity
  8
0
  6
Continuous
 62
     7
370
    25
100
AcDbLine
 10
115.3071457072
 20
17.0567804065
 30
0.0
 11
115.7349995352
 21
17.4998447188
 31
0.0
  0
LINE
  5
2D3
330
1F
100
AcDbEntity
  8
0
  6
Continuous
 62
     7
370
    25
100
AcDbLine
 10
115.7349995352
 20
17.4998447188
 30
0.0
 11
114.6425106936
 21
18.5548282055
 31
0.0
  0
ARC
  5
2D4
330
1F
100
AcDbEntity
  8
0
  6
Continuous
 62
     7
370
    25
100
AcDbCircle
 10
112.4704043316
 20
22.4958882091
 30
0.0
 40
4.500000000000977
100
AcDbArc
 50
243.1398669953
 51
298.8612578357
  0
LINE
  5
2D5
330
1F
100
AcDbEntity
  8
0
  6
Continuous
 62
     7
370
    25
100
AcDbLine
 10
103.738679821
 20
23.0166794498
 30
0.0
 11
103.738679821
 21
26.2536097045
 31
0.0
  0
LINE
  5
2D6
330
1F
100
AcDbEntity
  8
0
  6
Continuous
 62
     7
370
    25
100
AcDbLine
 10
104.4738604394
 20
22.2814988314
 30
0.0
 11
103.738679821
 21
23.0166794498
 31
0.0
  0
LINE
  5
2D7
330
1F
100
AcDbEntity
  8
0
  6
Continuous
 62
     7
370
    25
100
AcDbLine
 10
103.730767361
 20
21.5384057529
 30
0.0
 11
104.4738604394
 21
22.2814988314
 31
0.0
  0
LINE
  5
2D8
330
1F
100
AcDbEntity
  8
0
  6
Continuous
 62
     7
370
    25
100
AcDbLine
 10
103.730767361
 20
15.8492556897
 30
0.0
 11
103.730767361
 21
21.5384057529
 31
0.0
  0
ARC
  5
2D9
330
1F
100
AcDbEntity
  8
0
  6
Continuous
 62
     7
370
    25
100
AcDbCircle
 10
102.730767361
 20
15.8492556897
 30
0.0
 40
1.000000000000002
100
AcDbArc
 50
315.0
 51
0.0
  0
LINE
  5
2DA
330
1F
100
AcDbEntity
  8
0
  6
Continuous
 62
     7
370
    25
100
AcDbLine
 10
99.7007936738
 20
11.4050684401
 30
0.0
 11
103.4378741422
 21
15.1421489086
 31
0.0
  0
ARC
  5
2DB
330
1F
100
AcDbEntity
  8
0
  6
Continuous
 62
     7
370
    25
100
AcDbCircle
 10
100.407900455
 20
10.6979616589
 30
0.0
 40
1.0
100
AcDbArc
 50
135.0
 51
180.0
  0
LINE
  5
2DC
330
1F
100
AcDbEntity
  8
0
  6
Continuous
 62
     7
370
    25
100
AcDbLine
 10
99.407900455
 20
4.6704486498
 30
0.0
 11
99.407900455
 21
10.6979616589
 31
0.0
  0
ARC
  5
2DD
330
1F
100
AcDbEntity
  8
0
  6
Continuous
 62
     7
370
    25
100
AcDbCircle
 10
98.407900455
 20
4.6704486498
 30
0.0
 40
1.000000000000016
100
AcDbArc
 50
270.0
 51
0.0
  0
LINE
  5
2DE
330
1F
100
AcDbEntity
  8
0
  6
Continuous
 62
     7
370
    25
100
AcDbLine
 10
81.6276983443
 20
3.6704486498
 30
0.0
 11
98.407900455
 21
3.6704486498
 31
0.0
  0
ARC
  5
2DF
330
1F
100
AcDbEntity
  8
0
  6
Continuous
 62
     7
370
    25
100
AcDbCircle
 10
81.6276983443
 20
4.6704486498
 30
0.0
 40
1.0
100
AcDbArc
 50
180.0
 51
270.0
  0
LINE
  5
2E0
330
1F
100
AcDbEntity
  8
0
  6
Continuous
 62
     7
370
    25
100
AcDbLine
 10
80.6276983443
 20
10.6979616589
 30
0.0
 11
80.6276983443
 21
4.6704486498
 31
0.0
  0
ARC
  5
2E1
330
1F
100
AcDbEntity
  8
0
  6
Continuous
 62
     7
370
    25
100
AcDbCircle
 10
79.6276983443
 20
10.6979616589
 30
0.0
 40
1.0
100
AcDbArc
 50
0.0
 51
45.5461580303
  0
LINE
  5
2E2
330
1F
100
AcDbEntity
  8
0
  6
Continuous
 62
     7
370
    25
100
AcDbLine
 10
76.5554998252
 20
15.1130649549
 30
0.0
 11
80.3280327798
 21
11.4117765358
 31
0.0
  0
ARC
  5
2E3
330
1F
100
AcDbEntity
  8
0
  6
Continuous
 62
     7
370
    25
100
AcDbCircle
 10
77.2558342607
 20
15.8268798318
 30
0.0
 40
1.000000000000024
100
AcDbArc
 50
180.0
 51
225.5461580303
  0
LINE
  5
2E4
330
1F
100
AcDbEntity
  8
0
  6
Continuous
 62
     7
370
    25
100
AcDbLine
 10
76.2558342607
 20
21.516029895
 30
0.0
 11
76.2558342607
 21
15.8268798318
 31
0.0
  0
LINE
  5
2E5
330
1F
100
AcDbEntity
  8
0
  6
Continuous
 62
     7
370
    25
100
AcDbLine
 10
75.5055094833
 20
22.2663546724
 30
0.0
 11
76.2558342607
 21
21.516029895
 31
0.0
  0
LINE
  5
2E6
330
1F
100
AcDbEntity
  8
0
  6
Continuous
 62
     7
370
    25
100
AcDbLine
 10
76.2558342607
 20
23.0166794498
 30
0.0
 11
75.5055094833
 21
22.2663546724
 31
0.0
  0
LINE
  5
2E7
330
1F
100
AcDbEntity
  8
0
  6
Continuous
 62
     7
370
    25
100
AcDbLine
 10
76.2558342607
 20
26.2536097045
 30
0.0
 11
76.2558342607
 21
23.0166794498
 31
0.0
  0
ARC
  5
2E8
330
1F
100
AcDbEntity
  8
0
  6
Continuous
 62
     7
370
    25
100
AcDbCircle
 10
78.2558342607
 20
26.2536097045
 30
0.0
 40
2.000000000000043
100
AcDbArc
 50
90.0
 51
180.0
  0
LINE
  5
2E9
330
1F
100
AcDbEntity
  8
0
  6
Continuous
 62
     7
370
    25
100
AcDbLine
 10
101.738679821
 20
28.2536097045
 30
0.0
 11
78.2558342607
 21
28.2536097045
 31
0.0
  0
ARC
  5
2EA
330
1F
100
AcDbEntity
  8
0
  6
Continuous
 62
     7
370
    25
100
AcDbCircle
 10
101.738679821
 20
26.2536097045
 30
0.0
 40
2.000000000000043
100
AcDbArc
 50
0.0
 51
90.0
  0
ARC
  5
2EB
330
1F
100
AcDbEntity
  8
0
  6
Continuous
 62
     7
370
    25
100
AcDbCircle
 10
64.6908092684
 20
106.7886242608
 30
0.0
 40
0.2500000000000148
100
AcDbArc
 50
270.0
 51
46.0963182204
  0
LINE
  5
2EC
330
1F
100
AcDbEntity
  8
0
  6
Continuous
 62
     7
370
    25
100
AcDbLine
 10
64.6908092684
 20
106.5386242608
 30
0.0
 11
62.5094194524
 21
106.5386242608
 31
0.0
  0
LINE
  5
2ED
330
1F
100
AcDbEntity
  8
0
  6
Continuous
 62
     7
370
    25
100
AcDbLine
 10
62.5094194524
 20
106.5386242608
 30
0.0
 11
61.7259203472
 21
107.2926992742
 31
0.0
  0
LINE
  5
2EE
330
1F
100
AcDbEntity
  8
0
  6
Continuous
 62
     7
370
    25
100
AcDbLine
 10
61.7259203472
 20
107.2926992742
 30
0.0
 11
61.6424617141
 21
109.4724919676
 31
0.0
  0
ARC
  5
2EF
330
1F
100
AcDbEntity
  8
0
  6
Continuous
 62
     7
370
    25
100
AcDbCircle
 10
61.8922786745
 20
109.4820568139
 30
0.0
 40
0.2499999999999948
100
AcDbArc
 50
46.0963182204
 51
182.1926364407
  0
LINE
  5
2F0
330
1F
100
AcDbEntity
  8
0
  6
Continuous
 62
     7
370
    25
100
AcDbLine
 10
62.0656407067
 20
109.6621834521
 30
0.0
 11
62.5094194524
 21
109.2350706942
 31
0.0
  0
LINE
  5
2F1
330
1F
100
AcDbEntity
  8
0
  6
Continuous
 62
     7
370
    25
100
AcDbLine
 10
62.5094194524
 20
109.2350706942
 30
0.0
 11
63.5625756402
 21
110.3293211547
 31
0.0
  0
ARC
  5
2F2
330
1F
100
AcDbEntity
  8
0
  6
Continuous
 62
     7
370
    25
100
AcDbCircle
 10
67.5
 20
112.5080109929
 30
0.0
 40
4.500000000000608
100
AcDbArc
 50
153.2356228001
 51
208.9570136406
  0
LINE
  5
2F3
330
1F
100
AcDbEntity
  8
0
  6
Continuous
 62
     7
370
    25
100
AcDbLine
 10
63.4821031245
 20
114.5344622501
 30
0.0
 11
62.3878526639
 21
115.5876184378
 31
0.0
  0
LINE
  5
2F4
330
1F
100
AcDbEntity
  8
0
  6
Continuous
 62
     7
370
    25
100
AcDbLine
 10
62.3878526639
 20
115.5876184378
 30
0.0
 11
61.9607399061
 21
115.1438396922
 31
0.0
  0
ARC
  5
2F5
330
1F
100
AcDbEntity
  8
0
  6
Continuous
 62
     7
370
    25
100
AcDbCircle
 10
61.7806132679
 20
115.3172017244
 30
0.0
 40
0.2499999999999944
100
AcDbArc
 50
180.0
 51
316.0963182204
  0
LINE
  5
2F6
330
1F
100
AcDbEntity
  8
0
  6
Continuous
 62
     7
370
    25
100
AcDbLine
 10
61.5306132679
 20
115.3172017244
 30
0.0
 11
61.5306132679
 21
117.4985915404
 31
0.0
  0
LINE
  5
2F7
330
1F
100
AcDbEntity
  8
0
  6
Continuous
 62
     7
370
    25
100
AcDbLine
 10
61.5306132679
 20
117.4985915404
 30
0.0
 11
62.2846882813
 21
118.2820906456
 31
0.0
  0
LINE
  5
2F8
330
1F
100
AcDbEntity
  8
0
  6
Continuous
 62
     7
370
    25
100
AcDbLine
 10
62.2846882813
 20
118.2820906456
 30
0.0
 11
64.4644809747
 21
118.3655492787
 31
0.0
  0
ARC
  5
2F9
330
1F
100
AcDbEntity
  8
0
  6
Continuous
 62
     7
370
    25
100
AcDbCircle
 10
64.474045821
 20
118.1157323183
 30
0.0
 40
0.2499999999999944
100
AcDbArc
 50
316.0963182204
 51
92.1926364405
  0
LINE
  5
2FA
330
1F
100
AcDbEntity
  8
0
  6
Continuous
 62
     7
370
    25
100
AcDbLine
 10
64.6541724592
 20
117.9423702861
 30
0.0
 11
64.2270597013
 21
117.4985915404
 31
0.0
  0
LINE
  5
2FB
330
1F
100
AcDbEntity
  8
0
  6
Continuous
 62
     7
370
    25
100
AcDbLine
 10
64.2270597013
 20
117.4985915404
 30
0.0
 11
65.3213101618
 21
116.4454353527
 31
0.0
  0
ARC
  5
2FC
330
1F
100
AcDbEntity
  8
0
  6
Continuous
 62
     7
370
    25
100
AcDbCircle
 10
67.5
 20
112.5080109929
 30
0.0
 40
4.500000000002073
100
AcDbArc
 50
61.0429863594
 51
118.9570136406
  0
LINE
  5
2FD
330
1F
100
AcDbEntity
  8
0
  6
Continuous
 62
     7
370
    25
100
AcDbLine
 10
70.7729402986
 20
117.4985915404
 30
0.0
 11
69.6786898381
 21
116.4454353527
 31
0.0
  0
LINE
  5
2FE
330
1F
100
AcDbEntity
  8
0
  6
Continuous
 62
     7
370
    25
100
AcDbLine
 10
70.3458275408
 20
117.9423702861
 30
0.0
 11
70.7729402986
 21
117.4985915404
 31
0.0
  0
ARC
  5
2FF
330
1F
100
AcDbEntity
  8
0
  6
Continuous
 62
     7
370
    25
100
AcDbCircle
 10
70.525954179
 20
118.1157323183
 30
0.0
 40
0.2499999999999944
100
AcDbArc
 50
87.8073635595
 51
223.9036817796
  0
LINE
  5
300
330
1F
100
AcDbEntity
  8
0
  6
Continuous
 62
     7
370
    25
100
AcDbLine
 10
72.7153117186
 20
118.2820906456
 30
0.0
 11
70.5355190253
 21
118.3655492787
 31
0.0
  0
LINE
  5
301
330
1F
100
AcDbEntity
  8
0
  6
Continuous
 62
     7
370
    25
100
AcDbLine
 10
73.4693867321
 20
117.4985915404
 30
0.0
 11
72.7153117186
 21
118.2820906456
 31
0.0
  0
LINE
  5
302
330
1F
100
AcDbEntity
  8
0
  6
Continuous
 62
     7
370
    25
100
AcDbLine
 10
73.4693867321
 20
115.3172017244
 30
0.0
 11
73.4693867321
 21
117.4985915404
 31
0.0
  0
ARC
  5
303
330
1F
100
AcDbEntity
  8
0
  6
Continuous
 62
     7
370
    25
100
AcDbCircle
 10
73.2193867321
 20
115.3172017244
 30
0.0
 40
0.2499999999999948
100
AcDbArc
 50
223.9036817796
 51
360.0
  0
LINE
  5
304
330
1F
100
AcDbEntity
  8
0
  6
Continuous
 62
     7
370
    25
100
AcDbLine
 10
72.612147336
 20
115.5876184378
 30
0.0
 11
73.0392600939
 21
115.1438396922
 31
0.0
  0
LINE
  5
305
330
1F
100
AcDbEntity
  8
0
  6
Continuous
 62
     7
370
    25
100
AcDbLine
 10
71.5178968755
 20
114.5344622501
 30
0.0
 11
72.612147336
 21
115.5876184378
 31
0.0
  0
ARC
  5
306
330
1F
100
AcDbEntity
  8
0
  6
Continuous
 62
     7
370
    25
100
AcDbCircle
 10
67.5
 20
112.5080109929
 30
0.0
 40
4.500000000000608
100
AcDbArc
 50
331.0429863594
 51
26.7643771999
  0
LINE
  5
307
330
1F
100
AcDbEntity
  8
0
  6
Continuous
 62
     7
370
    25
100
AcDbLine
 10
72.4905805476
 20
109.2350706942
 30
0.0
 11
71.4374243598
 21
110.3293211547
 31
0.0
  0
LINE
  5
308
330
1F
100
AcDbEntity
  8
0
  6
Continuous
 62
     7
370
    25
100
AcDbLine
 10
72.9343592932
 20
109.6621834521
 30
0.0
 11
72.4905805476
 21
109.2350706942
 31
0.0
  0
ARC
  5
309
330
1F
100
AcDbEntity
  8
0
  6
Continuous
 62
     7
370
    25
100
AcDbCircle
 10
73.1077213254
 20
109.4820568139
 30
0.0
 40
0.2499999999999906
100
AcDbArc
 50
357.8073635593
 51
133.9036817796
  0
LINE
  5
30A
330
1F
100
AcDbEntity
  8
0
  6
Continuous
 62
     7
370
    25
100
AcDbLine
 10
73.2740796527
 20
107.2926992742
 30
0.0
 11
73.3575382859
 21
109.4724919676
 31
0.0
  0
LINE
  5
30B
330
1F
100
AcDbEntity
  8
0
  6
Continuous
 62
     7
370
    25
100
AcDbLine
 10
72.4905805476
 20
106.5386242608
 30
0.0
 11
73.2740796527
 21
107.2926992742
 31
0.0
  0
LINE
  5
30C
330
1F
100
AcDbEntity
  8
0
  6
Continuous
 62
     7
370
    25
100
AcDbLine
 10
70.3091907315
 20
106.5386242608
 30
0.0
 11
72.4905805476
 21
106.5386242608
 31
0.0
  0
ARC
  5
30D
330
1F
100
AcDbEntity
  8
0
  6
Continuous
 62
     7
370
    25
100
AcDbCircle
 10
70.3091907315
 20
106.7886242608
 30
0.0
 40
0.2500000000000448
100
AcDbArc
 50
133.9036817796
 51
270.0
  0
LINE
  5
30E
330
1F
100
AcDbEntity
  8
0
  6
Continuous
 62
     7
370
    25
100
AcDbLine
 10
70.579607445
 20
107.3958636568
 30
0.0
 11
70.1358286993
 21
106.968750899
 31
0.0
  0
LINE
  5
30F
330
1F
100
AcDbEntity
  8
0
  6
Continuous
 62
     7
370
    25
100
AcDbLine
 10
69.5264512572
 20
108.4901141174
 30
0.0
 11
70.579607445
 21
107.3958636568
 31
0.0
  0
ARC
  5
310
330
1F
100
AcDbEntity
  8
0
  6
Continuous
 62
     7
370
    25
100
AcDbCircle
 10
67.5
 20
112.5080109929
 30
0.0
 40
4.500000000000659
100
AcDbArc
 50
243.2356228001
 51
296.7643771999
  0
LINE
  5
311
330
1F
100
AcDbEntity
  8
0
  6
Continuous
 62
     7
370
    25
100
AcDbLine
 10
65.4735487428
 20
108.4901141174
 30
0.0
 11
64.420392555
 21
107.3958636568
 31
0.0
  0
LINE
  5
312
330
1F
100
AcDbEntity
  8
0
  6
Continuous
 62
     7
370
    25
100
AcDbLine
 10
64.420392555
 20
107.3958636568
 30
0.0
 11
64.8641713007
 21
106.968750899
 31
0.0
  0
ARC
  5
313
330
1F
100
AcDbEntity
  8
0
  6
Continuous
 62
     7
370
    25
100
AcDbCircle
 10
6.1647173374
 20
128.8352826626
 30
0.0
 40
3.500000000000246
100
AcDbArc
 50
333.3176984112
 51
26.6823015888
  0
LINE
  5
314
330
1F
100
AcDbEntity
  8
0
  6
Continuous
 62
     7
370
    25
100
AcDbLine
 10
9.7736801777
 20
126.7819547408
 30
0.0
 11
9.2920028216
 21
127.263632097
 31
0.0
  0
ARC
  5
315
330
1F
100
AcDbEntity
  8
0
  6
Continuous
 62
     7
370
    25
100
AcDbCircle
 10
8.9958627184
 20
126.0041372815
 30
0.0
 40
1.100000000000003
100
AcDbArc
 50
225.0
 51
45.0
  0
LINE
  5
316
330
1F
100
AcDbEntity
  8
0
  6
Continuous
 62
     7
370
    25
100
AcDbLine
 10
7.736367903
 20
125.7079971784
 30
0.0
 11
8.2180452591
 21
125.2263198222
 31
0.0
  0
ARC
  5
317
330
1F
100
AcDbEntity
  8
0
  6
Continuous
 62
     7
370
    25
100
AcDbCircle
 10
6.1647173374
 20
128.8352826626
 30
0.0
 40
3.499999999999988
100
AcDbArc
 50
243.3176984112
 51
296.6823015888
  0
LINE
  5
318
330
1F
100
AcDbEntity
  8
0
  6
Continuous
 62
     7
370
    25
100
AcDbLine
 10
4.1113894157
 20
125.2263198222
 30
0.0
 11
4.5930667718
 21
125.7079971784
 31
0.0
  0
ARC
  5
319
330
1F
100
AcDbEntity
  8
0
  6
Continuous
 62
     7
370
    25
100
AcDbCircle
 10
3.3335719564
 20
126.0041372815
 30
0.0
 40
1.099999999999998
100
AcDbArc
 50
135.0
 51
315.0
  0
LINE
  5
31A
330
1F
100
AcDbEntity
  8
0
  6
Continuous
 62
     7
370
    25
100
AcDbLine
 10
3.0374318532
 20
127.263632097
 30
0.0
 11
2.555754497
 21
126.7819547408
 31
0.0
  0
ARC
  5
31B
330
1F
100
AcDbEntity
  8
0
  6
Continuous
 62
     7
370
    25
100
AcDbCircle
 10
6.1647173374
 20
128.8352826626
 30
0.0
 40
3.49999999999975
100
AcDbArc
 50
153.3176984112
 51
206.6823015888
  0
LINE
  5
31C
330
1F
100
AcDbEntity
  8
0
  6
Continuous
 62
     7
370
    25
100
AcDbLine
 10
2.555754497
 20
130.8886105843
 30
0.0
 11
3.0374318532
 21
130.4069332282
 31
0.0
  0
ARC
  5
31D
330
1F
100
AcDbEntity
  8
0
  6
Continuous
 62
     7
370
    25
100
AcDbCircle
 10
3.3335719564
 20
131.6664280436
 30
0.0
 40
1.100000000000092
100
AcDbArc
 50
45.0
 51
224.9999999999
  0
LINE
  5
31E
330
1F
100
AcDbEntity
  8
0
  6
Continuous
 62
     7
370
    25
100
AcDbLine
 10
4.5930667718
 20
131.9625681468
 30
0.0
 11
4.1113894157
 21
132.4442455029
 31
0.0
  0
ARC
  5
31F
330
1F
100
AcDbEntity
  8
0
  6
Continuous
 62
     7
370
    25
100
AcDbCircle
 10
6.1647173374
 20
128.8352826626
 30
0.0
 40
3.500000000000052
100
AcDbArc
 50
63.3176984112
 51
116.6823015888
  0
LINE
  5
320
330
1F
100
AcDbEntity
  8
0
  6
Continuous
 62
     7
370
    25
100
AcDbLine
 10
8.2180452591
 20
132.4442455029
 30
0.0
 11
7.736367903
 21
131.9625681468
 31
0.0
  0
ARC
  5
321
330
1F
100
AcDbEntity
  8
0
  6
Continuous
 62
     7
370
    25
100
AcDbCircle
 10
8.9958627184
 20
131.6664280436
 30
0.0
 40
1.100000000000023
100
AcDbArc
 50
315.0
 51
135.0
  0
LINE
  5
322
330
1F
100
AcDbEntity
  8
0
  6
Continuous
 62
     7
370
    25
100
AcDbLine
 10
9.2920028216
 20
130.4069332282
 30
0.0
 11
9.7736801777
 21
130.8886105843
 31
0.0
  0
ARC
  5
323
330
1F
100
AcDbEntity
  8
0
  6
Continuous
 62
     7
370
    25
100
AcDbCircle
 10
4.6704486498
 20
81.6276983443
 30
0.0
 40
1.0
100
AcDbArc
 50
180.0
 51
270.0
  0
LINE
  5
324
330
1F
100
AcDbEntity
  8
0
  6
Continuous
 62
     7
370
    25
100
AcDbLine
 10
3.6704486498
 20
81.6276983443
 30
0.0
 11
3.6704486498
 21
98.407900455
 31
0.0
  0
ARC
  5
325
330
1F
100
AcDbEntity
  8
0
  6
Continuous
 62
     7
370
    25
100
AcDbCircle
 10
4.6704486498
 20
98.407900455
 30
0.0
 40
1.000000000000001
100
AcDbArc
 50
90.0
 51
180.0
  0
LINE
  5
326
330
1F
100
AcDbEntity
  8
0
  6
Continuous
 62
     7
370
    25
100
AcDbLine
 10
4.6704486498
 20
99.407900455
 30
0.0
 11
10.6979616589
 21
99.407900455
 31
0.0
  0
ARC
  5
327
330
1F
100
AcDbEntity
  8
0
  6
Continuous
 62
     7
370
    25
100
AcDbCircle
 10
10.6979616589
 20
100.407900455
 30
0.0
 40
1.0
100
AcDbArc
 50
270.0
 51
315.0
  0
LINE
  5
328
330
1F
100
AcDbEntity
  8
0
  6
Continuous
 62
     7
370
    25
100
AcDbLine
 10
11.4050684401
 20
99.7007936738
 30
0.0
 11
15.1421489086
 21
103.4378741422
 31
0.0
  0
ARC
  5
329
330
1F
100
AcDbEntity
  8
0
  6
Continuous
 62
     7
370
    25
100
AcDbCircle
 10
15.8492556897
 20
102.730767361
 30
0.0
 40
1.0
100
AcDbArc
 50
90.0
 51
135.0
  0
LINE
  5
32A
330
1F
100
AcDbEntity
  8
0
  6
Continuous
 62
     7
370
    25
100
AcDbLine
 10
15.8492556897
 20
103.730767361
 30
0.0
 11
21.5384057529
 21
103.730767361
 31
0.0
  0
LINE
  5
32B
330
1F
100
AcDbEntity
  8
0
  6
Continuous
 62
     7
370
    25
100
AcDbLine
 10
21.5384057529
 20
103.730767361
 30
0.0
 11
22.2814988314
 21
104.4738604394
 31
0.0
  0
LINE
  5
32C
330
1F
100
AcDbEntity
  8
0
  6
Continuous
 62
     7
370
    25
100
AcDbLine
 10
22.2814988314
 20
104.4738604394
 30
0.0
 11
23.0166794498
 21
103.738679821
 31
0.0
  0
LINE
  5
32D
330
1F
100
AcDbEntity
  8
0
  6
Continuous
 62
     7
370
    25
100
AcDbLine
 10
23.0166794498
 20
103.738679821
 30
0.0
 11
26.2536097045
 21
103.738679821
 31
0.0
  0
ARC
  5
32E
330
1F
100
AcDbEntity
  8
0
  6
Continuous
 62
     7
370
    25
100
AcDbCircle
 10
26.2536097045
 20
101.738679821
 30
0.0
 40
2.0
100
AcDbArc
 50
0.0
 51
90.0
  0
LINE
  5
32F
330
1F
100
AcDbEntity
  8
0
  6
Continuous
 62
     7
370
    25
100
AcDbLine
 10
28.2536097045
 20
101.738679821
 30
0.0
 11
28.2536097045
 21
78.2558342607
 31
0.0
  0
ARC
  5
330
330
1F
100
AcDbEntity
  8
0
  6
Continuous
 62
     7
370
    25
100
AcDbCircle
 10
26.2536097045
 20
78.2558342607
 30
0.0
 40
2.0
100
AcDbArc
 50
270.0
 51
0.0
  0
LINE
  5
331
330
1F
100
AcDbEntity
  8
0
  6
Continuous
 62
     7
370
    25
100
AcDbLine
 10
26.2536097045
 20
76.2558342607
 30
0.0
 11
23.0166794498
 21
76.2558342607
 31
0.0
  0
LINE
  5
332
330
1F
100
AcDbEntity
  8
0
  6
Continuous
 62
     7
370
    25
100
AcDbLine
 10
23.0166794498
 20
76.2558342607
 30
0.0
 11
22.2663546724
 21
75.5055094833
 31
0.0
  0
LINE
  5
333
330
1F
100
AcDbEntity
  8
0
  6
Continuous
 62
     7
370
    25
100
AcDbLine
 10
22.2663546724
 20
75.5055094833
 30
0.0
 11
21.516029895
 21
76.2558342607
 31
0.0
  0
LINE
  5
334
330
1F
100
AcDbEntity
  8
0
  6
Continuous
 62
     7
370
    25
100
AcDbLine
 10
21.516029895
 20
76.2558342607
 30
0.0
 11
15.8268798318
 21
76.2558342607
 31
0.0
  0
ARC
  5
335
330
1F
100
AcDbEntity
  8
0
  6
Continuous
 62
     7
370
    25
100
AcDbCircle
 10
15.8268798318
 20
77.2558342607
 30
0.0
 40
1.000000000000004
100
AcDbArc
 50
224.4538419697
 51
270.0
  0
LINE
  5
336
330
1F
100
AcDbEntity
  8
0
  6
Continuous
 62
     7
370
    25
100
AcDbLine
 10
15.1130649549
 20
76.5554998252
 30
0.0
 11
11.4117765358
 21
80.3280327798
 31
0.0
  0
ARC
  5
337
330
1F
100
AcDbEntity
  8
0
  6
Continuous
 62
     7
370
    25
100
AcDbCircle
 10
10.6979616589
 20
79.6276983443
 30
0.0
 40
1.0
100
AcDbArc
 50
44.4538419697
 51
90.0
  0
LINE
  5
338
330
1F
100
AcDbEntity
  8
0
  6
Continuous
 62
     7
370
    25
100
AcDbLine
 10
10.6979616589
 20
80.6276983443
 30
0.0
 11
4.6704486498
 21
80.6276983443
 31
0.0
  0
LINE
  5
339
330
1F
100
AcDbEntity
  8
0
  6
Continuous
 62
     7
370
    25
100
AcDbLine
 10
24.562759019
 20
116.5186163419
 30
0.0
 11
25.6177425056
 21
117.6111051835
 31
0.0
  0
LINE
  5
33A
330
1F
100
AcDbEntity
  8
0
  6
Continuous
 62
     7
370
    25
100
AcDbLine
 10
25.6177425056
 20
117.6111051835
 30
0.0
 11
25.1746781933
 21
118.0389590116
 31
0.0
  0
ARC
  5
33B
330
1F
100
AcDbEntity
  8
0
  6
Continuous
 62
     7
370
    25
100
AcDbCircle
 10
25.3483410207
 20
118.2187956663
 30
0.0
 40
0.250000000000004
100
AcDbArc
 50
89.9042441952
 51
226.0005624156
  0
LINE
  5
33C
330
1F
100
AcDbEntity
  8
0
  6
Continuous
 62
     7
370
    25
100
AcDbLine
 10
25.348758834
 20
118.4687953172
 30
0.0
 11
27.5301456036
 21
118.4651496623
 31
0.0
  0
LINE
  5
33D
330
1F
100
AcDbEntity
  8
0
  6
Continuous
 62
     7
370
    25
100
AcDbLine
 10
27.5301456036
 20
118.4651496623
 30
0.0
 11
28.3123833643
 21
117.7097662765
 31
0.0
  0
LINE
  5
33E
330
1F
100
AcDbEntity
  8
0
  6
Continuous
 62
     7
370
    25
100
AcDbLine
 10
28.3123833643
 20
117.7097662765
 30
0.0
 11
28.3921988951
 21
115.5298371468
 31
0.0
  0
ARC
  5
33F
330
1F
100
AcDbEntity
  8
0
  6
Continuous
 62
     7
370
    25
100
AcDbCircle
 10
28.1423662983
 20
115.5206898213
 30
0.0
 40
0.2499999999999915
100
AcDbArc
 50
226.0005624156
 51
2.0968806359
  0
LINE
  5
340
330
1F
100
AcDbEntity
  8
0
  6
Continuous
 62
     7
370
    25
100
AcDbLine
 10
27.968703471
 20
115.3408531665
 30
0.0
 11
27.5256391587
 21
115.7687069946
 31
0.0
  0
LINE
  5
341
330
1F
100
AcDbEntity
  8
0
  6
Continuous
 62
     7
370
    25
100
AcDbLine
 10
27.5256391587
 20
115.7687069946
 30
0.0
 11
26.470655672
 21
114.676218153
 31
0.0
  0
ARC
  5
342
330
1F
100
AcDbEntity
  8
0
  6
Continuous
 62
     7
370
    25
100
AcDbCircle
 10
22.5295956684
 20
112.5041117909
 30
0.0
 40
4.500000000001116
100
AcDbArc
 50
333.1398669954
 51
28.8612578358
  0
LINE
  5
343
330
1F
100
AcDbEntity
  8
0
  6
Continuous
 62
     7
370
    25
100
AcDbLine
 10
26.5441002194
 20
110.4709484403
 30
0.0
 11
27.636589061
 21
109.4159649537
 31
0.0
  0
LINE
  5
344
330
1F
100
AcDbEntity
  8
0
  6
Continuous
 62
     7
370
    25
100
AcDbLine
 10
27.636589061
 20
109.4159649537
 30
0.0
 11
28.0644428891
 21
109.859029266
 31
0.0
  0
ARC
  5
345
330
1F
100
AcDbEntity
  8
0
  6
Continuous
 62
     7
370
    25
100
AcDbCircle
 10
28.2442795438
 20
109.6853664386
 30
0.0
 40
0.2499999999999929
100
AcDbArc
 50
359.9042441952
 51
136.0005624156
  0
LINE
  5
346
330
1F
100
AcDbEntity
  8
0
  6
Continuous
 62
     7
370
    25
100
AcDbLine
 10
28.4942791947
 20
109.6849486253
 30
0.0
 11
28.4906335398
 21
107.5035618556
 31
0.0
  0
LINE
  5
347
330
1F
100
AcDbEntity
  8
0
  6
Continuous
 62
     7
370
    25
100
AcDbLine
 10
28.4906335398
 20
107.5035618556
 30
0.0
 11
27.735250154
 21
106.721324095
 31
0.0
  0
LINE
  5
348
330
1F
100
AcDbEntity
  8
0
  6
Continuous
 62
     7
370
    25
100
AcDbLine
 10
27.735250154
 20
106.721324095
 30
0.0
 11
25.5553210243
 21
106.6415085642
 31
0.0
  0
ARC
  5
349
330
1F
100
AcDbEntity
  8
0
  6
Continuous
 62
     7
370
    25
100
AcDbCircle
 10
25.5461736988
 20
106.891341161
 30
0.0
 40
0.2500000000000056
100
AcDbArc
 50
136.0005624156
 51
272.0968806359
  0
LINE
  5
34A
330
1F
100
AcDbEntity
  8
0
  6
Continuous
 62
     7
370
    25
100
AcDbLine
 10
25.366337044
 20
107.0650039883
 30
0.0
 11
25.7941908721
 21
107.5080683006
 31
0.0
  0
LINE
  5
34B
330
1F
100
AcDbEntity
  8
0
  6
Continuous
 62
     7
370
    25
100
AcDbLine
 10
25.7941908721
 20
107.5080683006
 30
0.0
 11
24.7017020304
 21
108.5630517873
 31
0.0
  0
ARC
  5
34C
330
1F
100
AcDbEntity
  8
0
  6
Continuous
 62
     7
370
    25
100
AcDbCircle
 10
22.5295956684
 20
112.5041117909
 30
0.0
 40
4.500000000001051
100
AcDbArc
 50
243.1398669953
 51
298.8612578358
  0
LINE
  5
34D
330
1F
100
AcDbEntity
  8
0
  6
Continuous
 62
     7
370
    25
100
AcDbLine
 10
20.4964323178
 20
108.4896072399
 30
0.0
 11
19.4414488311
 21
107.3971183983
 31
0.0
  0
LINE
  5
34E
330
1F
100
AcDbEntity
  8
0
  6
Continuous
 62
     7
370
    25
100
AcDbLine
 10
19.4414488311
 20
107.3971183983
 30
0.0
 11
19.8845131434
 21
106.9692645702
 31
0.0
  0
ARC
  5
34F
330
1F
100
AcDbEntity
  8
0
  6
Continuous
 62
     7
370
    25
100
AcDbCircle
 10
19.7108503161
 20
106.7894279154
 30
0.0
 40
0.2500000000000036
100
AcDbArc
 50
269.9042441952
 51
46.0005624156
  0
LINE
  5
350
330
1F
100
AcDbEntity
  8
0
  6
Continuous
 62
     7
370
    25
100
AcDbLine
 10
19.7104325028
 20
106.5394282646
 30
0.0
 11
17.5290457331
 21
106.5430739195
 31
0.0
  0
LINE
  5
351
330
1F
100
AcDbEntity
  8
0
  6
Continuous
 62
     7
370
    25
100
AcDbLine
 10
17.5290457331
 20
106.5430739195
 30
0.0
 11
16.7468079725
 21
107.2984573053
 31
0.0
  0
LINE
  5
352
330
1F
100
AcDbEntity
  8
0
  6
Continuous
 62
     7
370
    25
100
AcDbLine
 10
16.7468079725
 20
107.2984573053
 30
0.0
 11
16.6669924416
 21
109.478386435
 31
0.0
  0
ARC
  5
353
330
1F
100
AcDbEntity
  8
0
  6
Continuous
 62
     7
370
    25
100
AcDbCircle
 10
16.9168250385
 20
109.4875337605
 30
0.0
 40
0.250000000000017
100
AcDbArc
 50
46.0005624156
 51
182.0968806359
  0
LINE
  5
354
330
1F
100
AcDbEntity
  8
0
  6
Continuous
 62
     7
370
    25
100
AcDbLine
 10
17.0904878658
 20
109.6673704153
 30
0.0
 11
17.5335521781
 21
109.2395165872
 31
0.0
  0
LINE
  5
355
330
1F
100
AcDbEntity
  8
0
  6
Continuous
 62
     7
370
    25
100
AcDbLine
 10
17.5335521781
 20
109.2395165872
 30
0.0
 11
18.5885356648
 21
110.3320054288
 31
0.0
  0
ARC
  5
356
330
1F
100
AcDbEntity
  8
0
  6
Continuous
 62
     7
370
    25
100
AcDbCircle
 10
22.5295956684
 20
112.5041117909
 30
0.0
 40
4.500000000001026
100
AcDbArc
 50
153.1398669953
 51
208.8612578358
  0
LINE
  5
357
330
1F
100
AcDbEntity
  8
0
  6
Continuous
 62
     7
370
    25
100
AcDbLine
 10
18.5150911174
 20
114.5372751415
 30
0.0
 11
17.4226022758
 21
115.5922586281
 31
0.0
  0
LINE
  5
358
330
1F
100
AcDbEntity
  8
0
  6
Continuous
 62
     7
370
    25
100
AcDbLine
 10
17.4226022758
 20
115.5922586281
 30
0.0
 11
16.9947484477
 21
115.1491943158
 31
0.0
  0
ARC
  5
359
330
1F
100
AcDbEntity
  8
0
  6
Continuous
 62
     7
370
    25
100
AcDbCircle
 10
16.8149117929
 20
115.3228571432
 30
0.0
 40
0.2499999999999858
100
AcDbArc
 50
179.9042441952
 51
316.0005624156
  0
LINE
  5
35A
330
1F
100
AcDbEntity
  8
0
  6
Continuous
 62
     7
370
    25
100
AcDbLine
 10
16.5649121421
 20
115.3232749565
 30
0.0
 11
16.568557797
 21
117.5046617261
 31
0.0
  0
LINE
  5
35B
330
1F
100
AcDbEntity
  8
0
  6
Continuous
 62
     7
370
    25
100
AcDbLine
 10
16.568557797
 20
117.5046617261
 30
0.0
 11
17.3239411828
 21
118.2868994868
 31
0.0
  0
LINE
  5
35C
330
1F
100
AcDbEntity
  8
0
  6
Continuous
 62
     7
370
    25
100
AcDbLine
 10
17.3239411828
 20
118.2868994868
 30
0.0
 11
19.5038703125
 21
118.3667150176
 31
0.0
  0
ARC
  5
35D
330
1F
100
AcDbEntity
  8
0
  6
Continuous
 62
     7
370
    25
100
AcDbCircle
 10
19.513017638
 20
118.1168824208
 30
0.0
 40
0.2500000000000162
100
AcDbArc
 50
316.0005624156
 51
92.0968806359
  0
LINE
  5
35E
330
1F
100
AcDbEntity
  8
0
  6
Continuous
 62
     7
370
    25
100
AcDbLine
 10
19.6928542928
 20
117.9432195935
 30
0.0
 11
19.2650004647
 21
117.5001552812
 31
0.0
  0
LINE
  5
35F
330
1F
100
AcDbEntity
  8
0
  6
Continuous
 62
     7
370
    25
100
AcDbLine
 10
19.2650004647
 20
117.5001552812
 30
0.0
 11
20.3574893063
 21
116.4451717945
 31
0.0
  0
ARC
  5
360
330
1F
100
AcDbEntity
  8
0
  6
Continuous
 62
     7
370
    25
100
AcDbCircle
 10
22.5295956684
 20
112.5041117909
 30
0.0
 40
4.500000000000983
100
AcDbArc
 50
63.1398669953
 51
118.8612578357
  0
LINE
  5
361
330
1F
100
AcDbEntity
  8
0
  6
Continuous
 62
     7
370
    25
100
AcDbLine
 10
31.261320179
 20
111.9833205501
 30
0.0
 11
31.261320179
 21
108.7463902955
 31
0.0
  0
LINE
  5
362
330
1F
100
AcDbEntity
  8
0
  6
Continuous
 62
     7
370
    25
100
AcDbLine
 10
30.5261395605
 20
112.7185011686
 30
0.0
 11
31.261320179
 21
111.9833205501
 31
0.0
  0
LINE
  5
363
330
1F
100
AcDbEntity
  8
0
  6
Continuous
 62
     7
370
    25
100
AcDbLine
 10
31.2692326389
 20
113.461594247
 30
0.0
 11
30.5261395605
 21
112.7185011686
 31
0.0
  0
LINE
  5
364
330
1F
100
AcDbEntity
  8
0
  6
Continuous
 62
     7
370
    25
100
AcDbLine
 10
31.2692326389
 20
119.1507443102
 30
0.0
 11
31.2692326389
 21
113.461594247
 31
0.0
  0
ARC
  5
365
330
1F
100
AcDbEntity
  8
0
  6
Continuous
 62
     7
370
    25
100
AcDbCircle
 10
32.2692326389
 20
119.1507443102
 30
0.0
 40
1.000000000000008
100
AcDbArc
 50
135.0
 51
180.0
  0
LINE
  5
366
330
1F
100
AcDbEntity
  8
0
  6
Continuous
 62
     7
370
    25
100
AcDbLine
 10
35.2992063262
 20
123.5949315598
 30
0.0
 11
31.5621258578
 21
119.8578510914
 31
0.0
  0
ARC
  5
367
330
1F
100
AcDbEntity
  8
0
  6
Continuous
 62
     7
370
    25
100
AcDbCircle
 10
34.592099545
 20
124.302038341
 30
0.0
 40
1.000000000000003
100
AcDbArc
 50
315.0
 51
0.0
  0
LINE
  5
368
330
1F
100
AcDbEntity
  8
0
  6
Continuous
 62
     7
370
    25
100
AcDbLine
 10
35.592099545
 20
130.3295513502
 30
0.0
 11
35.592099545
 21
124.302038341
 31
0.0
  0
ARC
  5
369
330
1F
100
AcDbEntity
  8
0
  6
Continuous
 62
     7
370
    25
100
AcDbCircle
 10
36.592099545
 20
130.3295513502
 30
0.0
 40
1.000000000000028
100
AcDbArc
 50
90.0
 51
180.0
  0
LINE
  5
36A
330
1F
100
AcDbEntity
  8
0
  6
Continuous
 62
     7
370
    25
100
AcDbLine
 10
53.3723016556
 20
131.3295513502
 30
0.0
 11
36.592099545
 21
131.3295513502
 31
0.0
  0
ARC
  5
36B
330
1F
100
AcDbEntity
  8
0
  6
Continuous
 62
     7
370
    25
100
AcDbCircle
 10
53.3723016556
 20
130.3295513502
 30
0.0
 40
1.0
100
AcDbArc
 50
0.0
 51
90.0
  0
LINE
  5
36C
330
1F
100
AcDbEntity
  8
0
  6
Continuous
 62
     7
370
    25
100
AcDbLine
 10
54.3723016556
 20
124.302038341
 30
0.0
 11
54.3723016556
 21
130.3295513502
 31
0.0
  0
ARC
  5
36D
330
1F
100
AcDbEntity
  8
0
  6
Continuous
 62
     7
370
    25
100
AcDbCircle
 10
55.3723016556
 20
124.302038341
 30
0.0
 40
1.0
100
AcDbArc
 50
180.0
 51
225.5461580303
  0
LINE
  5
36E
330
1F
100
AcDbEntity
  8
0
  6
Continuous
 62
     7
370
    25
100
AcDbLine
 10
58.4445001747
 20
119.886935045
 30
0.0
 11
54.6719672201
 21
123.5882234641
 31
0.0
  0
ARC
  5
36F
330
1F
100
AcDbEntity
  8
0
  6
Continuous
 62
     7
370
    25
100
AcDbCircle
 10
57.7441657392
 20
119.1731201681
 30
0.0
 40
1.00000000000003
100
AcDbArc
 50
0.0
 51
45.5461580303
  0
LINE
  5
370
330
1F
100
AcDbEntity
  8
0
  6
Continuous
 62
     7
370
    25
100
AcDbLine
 10
58.7441657392
 20
113.483970105
 30
0.0
 11
58.7441657392
 21
119.1731201681
 31
0.0
  0
LINE
  5
371
330
1F
100
AcDbEntity
  8
0
  6
Continuous
 62
     7
370
    25
100
AcDbLine
 10
59.4944905166
 20
112.7336453275
 30
0.0
 11
58.7441657392
 21
113.483970105
 31
0.0
  0
LINE
  5
372
330
1F
100
AcDbEntity
  8
0
  6
Continuous
 62
     7
370
    25
100
AcDbLine
 10
58.7441657392
 20
111.9833205501
 30
0.0
 11
59.4944905166
 21
112.7336453275
 31
0.0
  0
LINE
  5
373
330
1F
100
AcDbEntity
  8
0
  6
Continuous
 62
     7
370
    25
100
AcDbLine
 10
58.7441657392
 20
108.7463902955
 30
0.0
 11
58.7441657392
 21
111.9833205501
 31
0.0
  0
ARC
  5
374
330
1F
100
AcDbEntity
  8
0
  6
Continuous
 62
     7
370
    25
100
AcDbCircle
 10
56.7441657392
 20
108.7463902955
 30
0.0
 40
2.000000000000043
100
AcDbArc
 50
270.0
 51
0.0
  0
LINE
  5
375
330
1F
100
AcDbEntity
  8
0
  6
Continuous
 62
     7
370
    25
100
AcDbLine
 10
33.261320179
 20
106.7463902955
 30
0.0
 11
56.7441657392
 21
106.7463902955
 31
0.0
  0
ARC
  5
376
330
1F
100
AcDbEntity
  8
0
  6
Continuous
 62
     7
370
    25
100
AcDbCircle
 10
33.261320179
 20
108.7463902955
 30
0.0
 40
2.000000000000043
100
AcDbArc
 50
180.0
 51
270.0
  0
ARC
  5
377
330
1F
100
AcDbEntity
  8
0
  6
Continuous
 62
     7
370
    25
100
AcDbCircle
 10
128.8352826626
 20
128.8352826626
 30
0.0
 40
3.500000000000258
100
AcDbArc
 50
153.3176984112
 51
206.6823015888
  0
LINE
  5
378
330
1F
100
AcDbEntity
  8
0
  6
Continuous
 62
     7
370
    25
100
AcDbLine
 10
125.7079971784
 20
130.4069332282
 30
0.0
 11
125.2263198222
 21
130.8886105843
 31
0.0
  0
ARC
  5
379
330
1F
100
AcDbEntity
  8
0
  6
Continuous
 62
     7
370
    25
100
AcDbCircle
 10
126.0041372815
 20
131.6664280436
 30
0.0
 40
1.100000000000003
100
AcDbArc
 50
45.0
 51
225.0
  0
LINE
  5
37A
330
1F
100
AcDbEntity
  8
0
  6
Continuous
 62
     7
370
    25
100
AcDbLine
 10
126.7819547408
 20
132.4442455029
 30
0.0
 11
127.263632097
 21
131.9625681468
 31
0.0
  0
ARC
  5
37B
330
1F
100
AcDbEntity
  8
0
  6
Continuous
 62
     7
370
    25
100
AcDbCircle
 10
128.8352826626
 20
128.8352826626
 30
0.0
 40
3.50000000000008
100
AcDbArc
 50
63.3176984112
 51
116.6823015888
  0
LINE
  5
37C
330
1F
100
AcDbEntity
  8
0
  6
Continuous
 62
     7
370
    25
100
AcDbLine
 10
130.4069332282
 20
131.9625681468
 30
0.0
 11
130.8886105843
 21
132.4442455029
 31
0.0
  0
ARC
  5
37D
330
1F
100
AcDbEntity
  8
0
  6
Continuous
 62
     7
370
    25
100
AcDbCircle
 10
131.6664280436
 20
131.6664280436
 30
0.0
 40
1.100000000000093
100
AcDbArc
 50
315.0000000001
 51
135.0
  0
LINE
  5
37E
330
1F
100
AcDbEntity
  8
0
  6
Continuous
 62
     7
370
    25
100
AcDbLine
 10
132.4442455029
 20
130.8886105843
 30
0.0
 11
131.9625681468
 21
130.4069332282
 31
0.0
  0
ARC
  5
37F
330
1F
100
AcDbEntity
  8
0
  6
Continuous
 62
     7
370
    25
100
AcDbCircle
 10
128.8352826626
 20
128.8352826626
 30
0.0
 40
3.49999999999973
100
AcDbArc
 50
333.3176984112
 51
26.6823015888
  0
LINE
  5
380
330
1F
100
AcDbEntity
  8
0
  6
Continuous
 62
     7
370
    25
100
AcDbLine
 10
131.9625681468
 20
127.263632097
 30
0.0
 11
132.4442455029
 21
126.7819547408
 31
0.0
  0
ARC
  5
381
330
1F
100
AcDbEntity
  8
0
  6
Continuous
 62
     7
370
    25
100
AcDbCircle
 10
131.6664280436
 20
126.0041372815
 30
0.0
 40
1.100000000000003
100
AcDbArc
 50
225.0
 51
45.0
  0
LINE
  5
382
330
1F
100
AcDbEntity
  8
0
  6
Continuous
 62
     7
370
    25
100
AcDbLine
 10
130.8886105843
 20
125.2263198222
 30
0.0
 11
130.4069332282
 21
125.7079971784
 31
0.0
  0
ARC
  5
383
330
1F
100
AcDbEntity
  8
0
  6
Continuous
 62
     7
370
    25
100
AcDbCircle
 10
128.8352826626
 20
128.8352826626
 30
0.0
 40
3.499999999999966
100
AcDbArc
 50
243.3176984112
 51
296.6823015888
  0
LINE
  5
384
330
1F
100
AcDbEntity
  8
0
  6
Continuous
 62
     7
370
    25
100
AcDbLine
 10
127.263632097
 20
125.7079971784
 30
0.0
 11
126.7819547408
 21
125.2263198222
 31
0.0
  0
ARC
  5
385
330
1F
100
AcDbEntity
  8
0
  6
Continuous
 62
     7
370
    25
100
AcDbCircle
 10
126.0041372815
 20
126.0041372815
 30
0.0
 40
1.100000000000013
100
AcDbArc
 50
135.0
 51
315.0
  0
LINE
  5
386
330
1F
100
AcDbEntity
  8
0
  6
Continuous
 62
     7
370
    25
100
AcDbLine
 10
125.2263198222
 20
126.7819547408
 30
0.0
 11
125.7079971784
 21
127.263632097
 31
0.0
  0
ARC
  5
387
330
1F
100
AcDbEntity
  8
0
  6
Continuous
 62
     7
370
    25
100
AcDbCircle
 10
130.3295513502
 20
81.6276983443
 30
0.0
 40
1.0
100
AcDbArc
 50
270.0
 51
360.0
  0
LINE
  5
388
330
1F
100
AcDbEntity
  8
0
  6
Continuous
 62
     7
370
    25
100
AcDbLine
 10
124.302038341
 20
80.6276983443
 30
0.0
 11
130.3295513502
 21
80.6276983443
 31
0.0
  0
ARC
  5
389
330
1F
100
AcDbEntity
  8
0
  6
Continuous
 62
     7
370
    25
100
AcDbCircle
 10
124.302038341
 20
79.6276983443
 30
0.0
 40
1.0
100
AcDbArc
 50
90.0
 51
135.5461580302
  0
LINE
  5
38A
330
1F
100
AcDbEntity
  8
0
  6
Continuous
 62
     7
370
    25
100
AcDbLine
 10
119.886935045
 20
76.5554998252
 30
0.0
 11
123.5882234641
 21
80.3280327798
 31
0.0
  0
ARC
  5
38B
330
1F
100
AcDbEntity
  8
0
  6
Continuous
 62
     7
370
    25
100
AcDbCircle
 10
119.1731201681
 20
77.2558342607
 30
0.0
 40
1.0
100
AcDbArc
 50
270.0
 51
315.5461580302
  0
LINE
  5
38C
330
1F
100
AcDbEntity
  8
0
  6
Continuous
 62
     7
370
    25
100
AcDbLine
 10
113.483970105
 20
76.2558342607
 30
0.0
 11
119.1731201681
 21
76.2558342607
 31
0.0
  0
LINE
  5
38D
330
1F
100
AcDbEntity
  8
0
  6
Continuous
 62
     7
370
    25
100
AcDbLine
 10
112.7336453275
 20
75.5055094833
 30
0.0
 11
113.483970105
 21
76.2558342607
 31
0.0
  0
LINE
  5
38E
330
1F
100
AcDbEntity
  8
0
  6
Continuous
 62
     7
370
    25
100
AcDbLine
 10
111.9833205501
 20
76.2558342607
 30
0.0
 11
112.7336453275
 21
75.5055094833
 31
0.0
  0
LINE
  5
38F
330
1F
100
AcDbEntity
  8
0
  6
Continuous
 62
     7
370
    25
100
AcDbLine
 10
108.7463902955
 20
76.2558342607
 30
0.0
 11
111.9833205501
 21
76.2558342607
 31
0.0
  0
ARC
  5
390
330
1F
100
AcDbEntity
  8
0
  6
Continuous
 62
     7
370
    25
100
AcDbCircle
 10
108.7463902955
 20
78.2558342607
 30
0.0
 40
2.0
100
AcDbArc
 50
180.0
 51
270.0
  0
LINE
  5
391
330
1F
100
AcDbEntity
  8
0
  6
Continuous
 62
     7
370
    25
100
AcDbLine
 10
106.7463902955
 20
101.738679821
 30
0.0
 11
106.7463902955
 21
78.2558342607
 31
0.0
  0
ARC
  5
392
330
1F
100
AcDbEntity
  8
0
  6
Continuous
 62
     7
370
    25
100
AcDbCircle
 10
108.7463902955
 20
101.738679821
 30
0.0
 40
2.000000000000014
100
AcDbArc
 50
90.0
 51
180.0
  0
LINE
  5
393
330
1F
100
AcDbEntity
  8
0
  6
Continuous
 62
     7
370
    25
100
AcDbLine
 10
111.9833205501
 20
103.738679821
 30
0.0
 11
108.7463902955
 21
103.738679821
 31
0.0
  0
LINE
  5
394
330
1F
100
AcDbEntity
  8
0
  6
Continuous
 62
     7
370
    25
100
AcDbLine
 10
112.7185011686
 20
104.4738604394
 30
0.0
 11
111.9833205501
 21
103.738679821
 31
0.0
  0
LINE
  5
395
330
1F
100
AcDbEntity
  8
0
  6
Continuous
 62
     7
370
    25
100
AcDbLine
 10
113.461594247
 20
103.730767361
 30
0.0
 11
112.7185011686
 21
104.4738604394
 31
0.0
  0
LINE
  5
396
330
1F
100
AcDbEntity
  8
0
  6
Continuous
 62
     7
370
    25
100
AcDbLine
 10
119.1507443102
 20
103.730767361
 30
0.0
 11
113.461594247
 21
103.730767361
 31
0.0
  0
ARC
  5
397
330
1F
100
AcDbEntity
  8
0
  6
Continuous
 62
     7
370
    25
100
AcDbCircle
 10
119.1507443102
 20
102.730767361
 30
0.0
 40
1.0
100
AcDbArc
 50
45.0
 51
90.0
  0
LINE
  5
398
330
1F
100
AcDbEntity
  8
0
  6
Continuous
 62
     7
370
    25
100
AcDbLine
 10
123.5949315598
 20
99.7007936738
 30
0.0
 11
119.8578510914
 21
103.4378741422
 31
0.0
  0
ARC
  5
399
330
1F
100
AcDbEntity
  8
0
  6
Continuous
 62
     7
370
    25
100
AcDbCircle
 10
124.302038341
 20
100.407900455
 30
0.0
 40
1.0
100
AcDbArc
 50
225.0
 51
270.0
  0
LINE
  5
39A
330
1F
100
AcDbEntity
  8
0
  6
Continuous
 62
     7
370
    25
100
AcDbLine
 10
130.3295513502
 20
99.407900455
 30
0.0
 11
124.302038341
 21
99.407900455
 31
0.0
  0
ARC
  5
39B
330
1F
100
AcDbEntity
  8
0
  6
Continuous
 62
     7
370
    25
100
AcDbCircle
 10
130.3295513502
 20
98.407900455
 30
0.0
 40
1.0
100
AcDbArc
 50
360.0
 51
90.0
  0
LINE
  5
39C
330
1F
100
AcDbEntity
  8
0
  6
Continuous
 62
     7
370
    25
100
AcDbLine
 10
131.3295513502
 20
81.6276983443
 30
0.0
 11
131.3295513502
 21
98.407900455
 31
0.0
  0
LINE
  5
39D
330
1F
100
AcDbEntity
  8
0
  6
Continuous
 62
     7
370
    25
100
AcDbLine
 10
110.437240981
 20
116.5186163419
 30
0.0
 11
109.3822574943
 21
117.6111051835
 31
0.0
  0
ARC
  5
39E
330
1F
100
AcDbEntity
  8
0
  6
Continuous
 62
     7
370
    25
100
AcDbCircle
 10
112.4704043316
 20
112.5041117909
 30
0.0
 40
4.500000000000974
100
AcDbArc
 50
61.1387421643
 51
116.8601330047
  0
LINE
  5
39F
330
1F
100
AcDbEntity
  8
0
  6
Continuous
 62
     7
370
    25
100
AcDbLine
 10
115.7349995352
 20
117.5001552812
 30
0.0
 11
114.6425106936
 21
116.4451717945
 31
0.0
  0
LINE
  5
3A0
330
1F
100
AcDbEntity
  8
0
  6
Continuous
 62
     7
370
    25
100
AcDbLine
 10
115.3071457072
 20
117.9432195935
 30
0.0
 11
115.7349995352
 21
117.5001552812
 31
0.0
  0
ARC
  5
3A1
330
1F
100
AcDbEntity
  8
0
  6
Continuous
 62
     7
370
    25
100
AcDbCircle
 10
115.4869823619
 20
118.1168824208
 30
0.0
 40
0.2500000000000192
100
AcDbArc
 50
87.9031193641
 51
223.9994375844
  0
LINE
  5
3A2
330
1F
100
AcDbEntity
  8
0
  6
Continuous
 62
     7
370
    25
100
AcDbLine
 10
117.6760588172
 20
118.2868994868
 30
0.0
 11
115.4961296875
 21
118.3667150176
 31
0.0
  0
LINE
  5
3A3
330
1F
100
AcDbEntity
  8
0
  6
Continuous
 62
     7
370
    25
100
AcDbLine
 10
118.431442203
 20
117.5046617261
 30
0.0
 11
117.6760588172
 21
118.2868994868
 31
0.0
  0
LINE
  5
3A4
330
1F
100
AcDbEntity
  8
0
  6
Continuous
 62
     7
370
    25
100
AcDbLine
 10
118.4350878579
 20
115.3232749565
 30
0.0
 11
118.431442203
 21
117.5046617261
 31
0.0
  0
ARC
  5
3A5
330
1F
100
AcDbEntity
  8
0
  6
Continuous
 62
     7
370
    25
100
AcDbCircle
 10
118.185088207
 20
115.3228571432
 30
0.0
 40
0.2499999999999894
100
AcDbArc
 50
223.9994375844
 51
0.0957558048
  0
LINE
  5
3A6
330
1F
100
AcDbEntity
  8
0
  6
Continuous
 62
     7
370
    25
100
AcDbLine
 10
117.5773977242
 20
115.5922586281
 30
0.0
 11
118.0052515522
 21
115.1491943158
 31
0.0
  0
LINE
  5
3A7
330
1F
100
AcDbEntity
  8
0
  6
Continuous
 62
     7
370
    25
100
AcDbLine
 10
116.4849088826
 20
114.5372751415
 30
0.0
 11
117.5773977242
 21
115.5922586281
 31
0.0
  0
ARC
  5
3A8
330
1F
100
AcDbEntity
  8
0
  6
Continuous
 62
     7
370
    25
100
AcDbCircle
 10
112.4704043316
 20
112.5041117909
 30
0.0
 40
4.500000000001031
100
AcDbArc
 50
331.1387421642
 51
26.8601330047
  0
LINE
  5
3A9
330
1F
100
AcDbEntity
  8
0
  6
Continuous
 62
     7
370
    25
100
AcDbLine
 10
117.4664478218
 20
109.2395165872
 30
0.0
 11
116.4114643352
 21
110.3320054288
 31
0.0
  0
LINE
  5
3AA
330
1F
100
AcDbEntity
  8
0
  6
Continuous
 62
     7
370
    25
100
AcDbLine
 10
117.9095121341
 20
109.6673704153
 30
0.0
 11
117.4664478218
 21
109.2395165872
 31
0.0
  0
ARC
  5
3AB
330
1F
100
AcDbEntity
  8
0
  6
Continuous
 62
     7
370
    25
100
AcDbCircle
 10
118.0831749615
 20
109.4875337605
 30
0.0
 40
0.2500000000000093
100
AcDbArc
 50
357.9031193641
 51
133.9994375844
  0
LINE
  5
3AC
330
1F
100
AcDbEntity
  8
0
  6
Continuous
 62
     7
370
    25
100
AcDbLine
 10
118.2531920275
 20
107.2984573053
 30
0.0
 11
118.3330075583
 21
109.478386435
 31
0.0
  0
LINE
  5
3AD
330
1F
100
AcDbEntity
  8
0
  6
Continuous
 62
     7
370
    25
100
AcDbLine
 10
117.4709542668
 20
106.5430739195
 30
0.0
 11
118.2531920275
 21
107.2984573053
 31
0.0
  0
LINE
  5
3AE
330
1F
100
AcDbEntity
  8
0
  6
Continuous
 62
     7
370
    25
100
AcDbLine
 10
115.2895674972
 20
106.5394282646
 30
0.0
 11
117.4709542668
 21
106.5430739195
 31
0.0
  0
ARC
  5
3AF
330
1F
100
AcDbEntity
  8
0
  6
Continuous
 62
     7
370
    25
100
AcDbCircle
 10
115.2891496839
 20
106.7894279154
 30
0.0
 40
0.2500000000000093
100
AcDbArc
 50
133.9994375844
 51
270.0957558048
  0
LINE
  5
3B0
330
1F
100
AcDbEntity
  8
0
  6
Continuous
 62
     7
370
    25
100
AcDbLine
 10
115.5585511688
 20
107.3971183983
 30
0.0
 11
115.1154868565
 21
106.9692645702
 31
0.0
  0
LINE
  5
3B1
330
1F
100
AcDbEntity
  8
0
  6
Continuous
 62
     7
370
    25
100
AcDbLine
 10
114.5035676821
 20
108.4896072399
 30
0.0
 11
115.5585511688
 21
107.3971183983
 31
0.0
  0
ARC
  5
3B2
330
1F
100
AcDbEntity
  8
0
  6
Continuous
 62
     7
370
    25
100
AcDbCircle
 10
112.4704043316
 20
112.5041117909
 30
0.0
 40
4.500000000001043
100
AcDbArc
 50
241.1387421642
 51
296.8601330047
  0
LINE
  5
3B3
330
1F
100
AcDbEntity
  8
0
  6
Continuous
 62
     7
370
    25
100
AcDbLine
 10
109.2058091279
 20
107.5080683006
 30
0.0
 11
110.2982979695
 21
108.5630517873
 31
0.0
  0
LINE
  5
3B4
330
1F
100
AcDbEntity
  8
0
  6
Continuous
 62
     7
370
    25
100
AcDbLine
 10
109.633662956
 20
107.0650039883
 30
0.0
 11
109.2058091279
 21
107.5080683006
 31
0.0
  0
ARC
  5
3B5
330
1F
100
AcDbEntity
  8
0
  6
Continuous
 62
     7
370
    25
100
AcDbCircle
 10
109.4538263012
 20
106.891341161
 30
0.0
 40
0.249999999999992
100
AcDbArc
 50
267.9031193641
 51
43.9994375844
  0
LINE
  5
3B6
330
1F
100
AcDbEntity
  8
0
  6
Continuous
 62
     7
370
    25
100
AcDbLine
 10
107.264749846
 20
106.721324095
 30
0.0
 11
109.4446789757
 21
106.6415085642
 31
0.0
  0
LINE
  5
3B7
330
1F
100
AcDbEntity
  8
0
  6
Continuous
 62
     7
370
    25
100
AcDbLine
 10
106.5093664602
 20
107.5035618556
 30
0.0
 11
107.264749846
 21
106.721324095
 31
0.0
  0
LINE
  5
3B8
330
1F
100
AcDbEntity
  8
0
  6
Continuous
 62
     7
370
    25
100
AcDbLine
 10
106.5057208053
 20
109.6849486253
 30
0.0
 11
106.5093664602
 21
107.5035618556
 31
0.0
  0
ARC
  5
3B9
330
1F
100
AcDbEntity
  8
0
  6
Continuous
 62
     7
370
    25
100
AcDbCircle
 10
106.7557204561
 20
109.6853664386
 30
0.0
 40
0.2500000000000035
100
AcDbArc
 50
43.9994375844
 51
180.0957558048
  0
LINE
  5
3BA
330
1F
100
AcDbEntity
  8
0
  6
Continuous
 62
     7
370
    25
100
AcDbLine
 10
107.363410939
 20
109.4159649537
 30
0.0
 11
106.9355571109
 21
109.859029266
 31
0.0
  0
LINE
  5
3BB
330
1F
100
AcDbEntity
  8
0
  6
Continuous
 62
     7
370
    25
100
AcDbLine
 10
108.4558997806
 20
110.4709484403
 30
0.0
 11
107.363410939
 21
109.4159649537
 31
0.0
  0
ARC
  5
3BC
330
1F
100
AcDbEntity
  8
0
  6
Continuous
 62
     7
370
    25
100
AcDbCircle
 10
112.4704043316
 20
112.5041117909
 30
0.0
 40
4.500000000001128
100
AcDbArc
 50
151.1387421642
 51
206.8601330046
  0
LINE
  5
3BD
330
1F
100
AcDbEntity
  8
0
  6
Continuous
 62
     7
370
    25
100
AcDbLine
 10
107.4743608413
 20
115.7687069946
 30
0.0
 11
108.529344328
 21
114.676218153
 31
0.0
  0
LINE
  5
3BE
330
1F
100
AcDbEntity
  8
0
  6
Continuous
 62
     7
370
    25
100
AcDbLine
 10
107.031296529
 20
115.3408531665
 30
0.0
 11
107.4743608413
 21
115.7687069946
 31
0.0
  0
ARC
  5
3BF
330
1F
100
AcDbEntity
  8
0
  6
Continuous
 62
     7
370
    25
100
AcDbCircle
 10
106.8576337017
 20
115.5206898213
 30
0.0
 40
0.2499999999999987
100
AcDbArc
 50
177.9031193641
 51
313.9994375844
  0
LINE
  5
3C0
330
1F
100
AcDbEntity
  8
0
  6
Continuous
 62
     7
370
    25
100
AcDbLine
 10
106.6876166357
 20
117.7097662765
 30
0.0
 11
106.6078011048
 21
115.5298371468
 31
0.0
  0
LINE
  5
3C1
330
1F
100
AcDbEntity
  8
0
  6
Continuous
 62
     7
370
    25
100
AcDbLine
 10
107.4698543963
 20
118.4651496623
 30
0.0
 11
106.6876166357
 21
117.7097662765
 31
0.0
  0
LINE
  5
3C2
330
1F
100
AcDbEntity
  8
0
  6
Continuous
 62
     7
370
    25
100
AcDbLine
 10
109.651241166
 20
118.4687953172
 30
0.0
 11
107.4698543963
 21
118.4651496623
 31
0.0
  0
ARC
  5
3C3
330
1F
100
AcDbEntity
  8
0
  6
Continuous
 62
     7
370
    25
100
AcDbCircle
 10
109.6516589793
 20
118.2187956663
 30
0.0
 40
0.2500000000000036
100
AcDbArc
 50
313.9994375844
 51
90.0957558048
  0
LINE
  5
3C4
330
1F
100
AcDbEntity
  8
0
  6
Continuous
 62
     7
370
    25
100
AcDbLine
 10
109.3822574943
 20
117.6111051835
 30
0.0
 11
109.8253218066
 21
118.0389590116
 31
0.0
  0
LINE
  5
3C5
330
1F
100
AcDbEntity
  8
0
  6
Continuous
 62
     7
370
    25
100
AcDbLine
 10
103.738679821
 20
111.9833205501
 30
0.0
 11
103.738679821
 21
108.7463902955
 31
0.0
  0
ARC
  5
3C6
330
1F
100
AcDbEntity
  8
0
  6
Continuous
 62
     7
370
    25
100
AcDbCircle
 10
101.738679821
 20
108.7463902955
 30
0.0
 40
2.000000000000028
100
AcDbArc
 50
270.0
 51
360.0
  0
LINE
  5
3C7
330
1F
100
AcDbEntity
  8
0
  6
Continuous
 62
     7
370
    25
100
AcDbLine
 10
101.738679821
 20
106.7463902955
 30
0.0
 11
78.2558342607
 21
106.7463902955
 31
0.0
  0
ARC
  5
3C8
330
1F
100
AcDbEntity
  8
0
  6
Continuous
 62
     7
370
    25
100
AcDbCircle
 10
78.2558342607
 20
108.7463902955
 30
0.0
 40
2.000000000000043
100
AcDbArc
 50
180.0
 51
270.0
  0
LINE
  5
3C9
330
1F
100
AcDbEntity
  8
0
  6
Continuous
 62
     7
370
    25
100
AcDbLine
 10
76.2558342607
 20
108.7463902955
 30
0.0
 11
76.2558342607
 21
111.9833205501
 31
0.0
  0
LINE
  5
3CA
330
1F
100
AcDbEntity
  8
0
  6
Continuous
 62
     7
370
    25
100
AcDbLine
 10
76.2558342607
 20
111.9833205501
 30
0.0
 11
75.5055094833
 21
112.7336453275
 31
0.0
  0
LINE
  5
3CB
330
1F
100
AcDbEntity
  8
0
  6
Continuous
 62
     7
370
    25
100
AcDbLine
 10
75.5055094833
 20
112.7336453275
 30
0.0
 11
76.2558342607
 21
113.483970105
 31
0.0
  0
LINE
  5
3CC
330
1F
100
AcDbEntity
  8
0
  6
Continuous
 62
     7
370
    25
100
AcDbLine
 10
76.2558342607
 20
113.483970105
 30
0.0
 11
76.2558342607
 21
119.1731201681
 31
0.0
  0
ARC
  5
3CD
330
1F
100
AcDbEntity
  8
0
  6
Continuous
 62
     7
370
    25
100
AcDbCircle
 10
77.2558342607
 20
119.1731201681
 30
0.0
 40
1.00000000000003
100
AcDbArc
 50
134.4538419697
 51
180.0
  0
LINE
  5
3CE
330
1F
100
AcDbEntity
  8
0
  6
Continuous
 62
     7
370
    25
100
AcDbLine
 10
76.5554998252
 20
119.886935045
 30
0.0
 11
80.3280327798
 21
123.5882234641
 31
0.0
  0
ARC
  5
3CF
330
1F
100
AcDbEntity
  8
0
  6
Continuous
 62
     7
370
    25
100
AcDbCircle
 10
79.6276983443
 20
124.302038341
 30
0.0
 40
1.0
100
AcDbArc
 50
314.4538419697
 51
360.0
  0
LINE
  5
3D0
330
1F
100
AcDbEntity
  8
0
  6
Continuous
 62
     7
370
    25
100
AcDbLine
 10
80.6276983443
 20
124.302038341
 30
0.0
 11
80.6276983443
 21
130.3295513502
 31
0.0
  0
ARC
  5
3D1
330
1F
100
AcDbEntity
  8
0
  6
Continuous
 62
     7
370
    25
100
AcDbCircle
 10
81.6276983443
 20
130.3295513502
 30
0.0
 40
1.0
100
AcDbArc
 50
90.0
 51
180.0
  0
LINE
  5
3D2
330
1F
100
AcDbEntity
  8
0
  6
Continuous
 62
     7
370
    25
100
AcDbLine
 10
81.6276983443
 20
131.3295513502
 30
0.0
 11
98.407900455
 21
131.3295513502
 31
0.0
  0
ARC
  5
3D3
330
1F
100
AcDbEntity
  8
0
  6
Continuous
 62
     7
370
    25
100
AcDbCircle
 10
98.407900455
 20
130.3295513502
 30
0.0
 40
1.000000000000028
100
AcDbArc
 50
360.0
 51
90.0
  0
LINE
  5
3D4
330
1F
100
AcDbEntity
  8
0
  6
Continuous
 62
     7
370
    25
100
AcDbLine
 10
99.407900455
 20
130.3295513502
 30
0.0
 11
99.407900455
 21
124.302038341
 31
0.0
  0
ARC
  5
3D5
330
1F
100
AcDbEntity
  8
0
  6
Continuous
 62
     7
370
    25
100
AcDbCircle
 10
100.407900455
 20
124.302038341
 30
0.0
 40
1.000000000000008
100
AcDbArc
 50
180.0
 51
225.0
  0
LINE
  5
3D6
330
1F
100
AcDbEntity
  8
0
  6
Continuous
 62
     7
370
    25
100
AcDbLine
 10
99.7007936738
 20
123.5949315598
 30
0.0
 11
103.4378741422
 21
119.8578510914
 31
0.0
  0
ARC
  5
3D7
330
1F
100
AcDbEntity
  8
0
  6
Continuous
 62
     7
370
    25
100
AcDbCircle
 10
102.730767361
 20
119.1507443102
 30
0.0
 40
1.0
100
AcDbArc
 50
360.0
 51
45.0
  0
LINE
  5
3D8
330
1F
100
AcDbEntity
  8
0
  6
Continuous
 62
     7
370
    25
100
AcDbLine
 10
103.730767361
 20
119.1507443102
 30
0.0
 11
103.730767361
 21
113.461594247
 31
0.0
  0
LINE
  5
3D9
330
1F
100
AcDbEntity
  8
0
  6
Continuous
 62
     7
370
    25
100
AcDbLine
 10
103.730767361
 20
113.461594247
 30
0.0
 11
104.4738604394
 21
112.7185011686
 31
0.0
  0
LINE
  5
3DA
330
1F
100
AcDbEntity
  8
0
  6
Continuous
 62
     7
370
    25
100
AcDbLine
 10
104.4738604394
 20
112.7185011686
 30
0.0
 11
103.738679821
 21
111.9833205501
 31
0.0
  0
ENDSEC
  0
SECTION
  2
OBJECTS
  0
DICTIONARY
  5
C
330
0
100
AcDbDictionary
281
     1
  3
ACAD_GROUP
350
D
  3
ACAD_LAYOUT
350
1A
  3
ACAD_MLINESTYLE
350
17
  3
ACAD_PLOTSETTINGS
350
19
  3
ACAD_PLOTSTYLENAME
350
E
  3
ACAD_SCALELIST
350
47
  0
DICTIONARY
  5
D
102
{ACAD_REACTORS
330
C
102
}
330
C
100
AcDbDictionary
281
     1
  0
DICTIONARY
  5
1A
102
{ACAD_REACTORS
330
C
102
}
330
C
100
AcDbDictionary
281
     1
  3
Layout1
350
1E
  3
Layout2
350
26
  3
Model
350
22
  0
DICTIONARY
  5
17
102
{ACAD_REACTORS
330
C
102
}
330
C
100
AcDbDictionary
281
     1
  3
Standard
350
18
  0
DICTIONARY
  5
19
102
{ACAD_REACTORS
330
C
102
}
330
C
100
AcDbDictionary
281
     1
  0
ACDBDICTIONARYWDFLT
  5
E
102
{ACAD_REACTORS
330
C
102
}
330
C
100
AcDbDictionary
281
     1
  3
Normal
350
F
100
AcDbDictionaryWithDefault
340
F
  0
DICTIONARY
  5
47
102
{ACAD_REACTORS
330
C
102
}
330
C
100
AcDbDictionary
281
     1
  3
A0
350
48
  3
A1
350
49
  3
A2
350
4A
  3
A3
350
4B
  3
A4
350
4C
  3
A5
350
4D
  3
A6
350
4E
  3
A7
350
4F
  3
A8
350
50
  3
A9
350
51
  3
B0
350
52
  3
B1
350
53
  3
B2
350
54
  3
B3
350
55
  3
B4
350
56
  3
B5
350
57
  3
B6
350
58
  3
B7
350
59
  3
B8
350
5A
  3
B9
350
5B
  3
C0
350
5C
  3
C1
350
5D
  3
C2
350
5E
  3
C3
350
5F
  3
C4
350
60
  3
C5
350
61
  3
C6
350
62
  3
C7
350
63
  3
C8
350
64
  3
C9
350
65
  3
D0
350
66
  3
D1
350
67
  3
D2
350
68
  0
LAYOUT
  5
1E
102
{ACAD_REACTORS
330
1A
102
}
330
1A
100
AcDbPlotSettings
  1

  2
none_device
  4

  6

 40
0.0
 41
0.0
 42
0.0
 43
0.0
 44
0.0
 45
0.0
 46
0.0
 47
0.0
 48
0.0
 49
0.0
140
0.0
141
0.0
142
1.0
143
1.0
 70
   688
 72
     1
 73
     0
 74
     5
  7

 75
    16
147
1.0
148
0.0
149
0.0
100
AcDbLayout
  1
Layout1
 70
     1
 71
     1
 10
0.0
 20
0.0
 11
420.0
 21
297.0
 12
0.0
 22
0.0
 32
0.0
 14
1.0000000000E+20
 24
1.0000000000E+20
 34
1.0000000000E+20
 15
-1.0000000000E+20
 25
-1.0000000000E+20
 35
-1.0000000000E+20
146
0.0
 13
0.0
 23
0.0
 33
0.0
 16
1.0
 26
0.0
 36
0.0
 17
0.0
 27
1.0
 37
0.0
 76
     0
330
1B
  0
LAYOUT
  5
26
102
{ACAD_REACTORS
330
1A
102
}
330
1A
100
AcDbPlotSettings
  1

  2
none_device
  4

  6

 40
0.0
 41
0.0
 42
0.0
 43
0.0
 44
0.0
 45
0.0
 46
0.0
 47
0.0
 48
0.0
 49
0.0
140
0.0
141
0.0
142
1.0
143
1.0
 70
   688
 72
     1
 73
     0
 74
     5
  7

 75
    16
147
1.0
148
0.0
149
0.0
100
AcDbLayout
  1
Layout2
 70
     1
 71
     2
 10
0.0
 20
0.0
 11
0.0
 21
0.0
 12
0.0
 22
0.0
 32
0.0
 14
0.0
 24
0.0
 34
0.0
 15
0.0
 25
0.0
 35
0.0
146
0.0
 13
0.0
 23
0.0
 33
0.0
 16
1.0
 26
0.0
 36
0.0
 17
0.0
 27
1.0
 37
0.0
 76
     0
330
23
  0
LAYOUT
  5
22
102
{ACAD_REACTORS
330
1A
102
}
330
1A
100
AcDbPlotSettings
  1

  2
none_device
  4
ANSI_A_(11.00_x_8.50_Inches)
  6

 40
6.35
 41
19.05
 42
6.35000508
 43
19.05000254
 44
279.4
 45
215.9
 46
26.4794974601
 47
-17.9705012699
 48
0.0
 49
0.0
140
0.0
141
0.0
142
0.0623333333
143
1.0
 70
  1696
 72
     0
 73
     0
 74
     0
  7

 75
     0
147
0.0179189148
148
-1300.4909072572
149
0.0
100
AcDbLayout
  1
Model
 70
     1
 71
     0
 10
0.0
 20
0.0
 11
420.0
 21
297.0
 12
0.0
 22
0.0
 32
0.0
 14
-0.0000000001
 24
-0.0000000001
 34
0.0
 15
135.0
 25
135.0
 35
0.0
146
0.0
 13
0.0
 23
0.0
 33
0.0
 16
1.0
 26
0.0
 36
0.0
 17
0.0
 27
1.0
 37
0.0
 76
     0
330
1F
331
29
  0
MLINESTYLE
  5
18
102
{ACAD_REACTORS
330
17
102
}
330
17
100
AcDbMlineStyle
  2
Standard
 70
     0
  3

 62
   256
 51
90.0
 52
90.0
 71
     2
 49
0.5
 62
   256
  6
BYLAYER
 49
-0.5
 62
   256
  6
BYLAYER
  0
ACDBPLACEHOLDER
  5
F
102
{ACAD_REACTORS
330
E
102
}
330
E
  0
SCALE
  5
48
102
{ACAD_REACTORS
330
47
102
}
330
47
100
AcDbScale
 70
     0
300
1:1
140
1.0
141
1.0
290
     1
  0
SCALE
  5
49
102
{ACAD_REACTORS
330
47
102
}
330
47
100
AcDbScale
 70
     0
300
1:2
140
1.0
141
2.0
290
     0
  0
SCALE
  5
4A
102
{ACAD_REACTORS
330
47
102
}
330
47
100
AcDbScale
 70
     0
300
1:4
140
1.0
141
4.0
290
     0
  0
SCALE
  5
4B
102
{ACAD_REACTORS
330
47
102
}
330
47
100
AcDbScale
 70
     0
300
1:5
140
1.0
141
5.0
290
     0
  0
SCALE
  5
4C
102
{ACAD_REACTORS
330
47
102
}
330
47
100
AcDbScale
 70
     0
300
1:8
140
1.0
141
8.0
290
     0
  0
SCALE
  5
4D
102
{ACAD_REACTORS
330
47
102
}
330
47
100
AcDbScale
 70
     0
300
1:10
140
1.0
141
10.0
290
     0
  0
SCALE
  5
4E
102
{ACAD_REACTORS
330
47
102
}
330
47
100
AcDbScale
 70
     0
300
1:16
140
1.0
141
16.0
290
     0
  0
SCALE
  5
4F
102
{ACAD_REACTORS
330
47
102
}
330
47
100
AcDbScale
 70
     0
300
1:20
140
1.0
141
20.0
290
     0
  0
SCALE
  5
50
102
{ACAD_REACTORS
330
47
102
}
330
47
100
AcDbScale
 70
     0
300
1:30
140
1.0
141
30.0
290
     0
  0
SCALE
  5
51
102
{ACAD_REACTORS
330
47
102
}
330
47
100
AcDbScale
 70
     0
300
1:40
140
1.0
141
40.0
290
     0
  0
SCALE
  5
52
102
{ACAD_REACTORS
330
47
102
}
330
47
100
AcDbScale
 70
     0
300
1:50
140
1.0
141
50.0
290
     0
  0
SCALE
  5
53
102
{ACAD_REACTORS
330
47
102
}
330
47
100
AcDbScale
 70
     0
300
1:100
140
1.0
141
100.0
290
     0
  0
SCALE
  5
54
102
{ACAD_REACTORS
330
47
102
}
330
47
100
AcDbScale
 70
     0
300
2:1
140
2.0
141
1.0
290
     0
  0
SCALE
  5
55
102
{ACAD_REACTORS
330
47
102
}
330
47
100
AcDbScale
 70
     0
300
4:1
140
4.0
141
1.0
290
     0
  0
SCALE
  5
56
102
{ACAD_REACTORS
330
47
102
}
330
47
100
AcDbScale
 70
     0
300
8:1
140
8.0
141
1.0
290
     0
  0
SCALE
  5
57
102
{ACAD_REACTORS
330
47
102
}
330
47
100
AcDbScale
 70
     0
300
10:1
140
10.0
141
1.0
290
     0
  0
SCALE
  5
58
102
{ACAD_REACTORS
330
47
102
}
330
47
100
AcDbScale
 70
     0
300
100:1
140
100.0
141
1.0
290
     0
  0
SCALE
  5
59
102
{ACAD_REACTORS
330
47
102
}
330
47
100
AcDbScale
 70
     0
300
1/128" = 1'-0"
140
0.0078125
141
12.0
290
     0
  0
SCALE
  5
5A
102
{ACAD_REACTORS
330
47
102
}
330
47
100
AcDbScale
 70
     0
300
1/64" = 1'-0"
140
0.015625
141
12.0
290
     0
  0
SCALE
  5
5B
102
{ACAD_REACTORS
330
47
102
}
330
47
100
AcDbScale
 70
     0
300
1/32" = 1'-0"
140
0.03125
141
12.0
290
     0
  0
SCALE
  5
5C
102
{ACAD_REACTORS
330
47
102
}
330
47
100
AcDbScale
 70
     0
300
1/16" = 1'-0"
140
0.0625
141
12.0
290
     0
  0
SCALE
  5
5D
102
{ACAD_REACTORS
330
47
102
}
330
47
100
AcDbScale
 70
     0
300
3/32" = 1'-0"
140
0.09375
141
12.0
290
     0
  0
SCALE
  5
5E
102
{ACAD_REACTORS
330
47
102
}
330
47
100
AcDbScale
 70
     0
300
1/8" = 1'-0"
140
0.125
141
12.0
290
     0
  0
SCALE
  5
5F
102
{ACAD_REACTORS
330
47
102
}
330
47
100
AcDbScale
 70
     0
300
3/16" = 1'-0"
140
0.1875
141
12.0
290
     0
  0
SCALE
  5
60
102
{ACAD_REACTORS
330
47
102
}
330
47
100
AcDbScale
 70
     0
300
1/4" = 1'-0"
140
0.25
141
12.0
290
     0
  0
SCALE
  5
61
102
{ACAD_REACTORS
330
47
102
}
330
47
100
AcDbScale
 70
     0
300
3/8" = 1'-0"
140
0.375
141
12.0
290
     0
  0
SCALE
  5
62
102
{ACAD_REACTORS
330
47
102
}
330
47
100
AcDbScale
 70
     0
300
1/2" = 1'-0"
140
0.5
141
12.0
290
     0
  0
SCALE
  5
63
102
{ACAD_REACTORS
330
47
102
}
330
47
100
AcDbScale
 70
     0
300
3/4" = 1'-0"
140
0.75
141
12.0
290
     0
  0
SCALE
  5
64
102
{ACAD_REACTORS
330
47
102
}
330
47
100
AcDbScale
 70
     0
300
1" = 1'-0"
140
1.0
141
12.0
290
     0
  0
SCALE
  5
65
102
{ACAD_REACTORS
330
47
102
}
330
47
100
AcDbScale
 70
     0
300
1-1/2" = 1'-0"
140
1.5
141
12.0
290
     0
  0
SCALE
  5
66
102
{ACAD_REACTORS
330
47
102
}
330
47
100
AcDbScale
 70
     0
300
3" = 1'-0"
140
3.0
141
12.0
290
     0
  0
SCALE
  5
67
102
{ACAD_REACTORS
330
47
102
}
330
47
100
AcDbScale
 70
     0
300
6" = 1'-0"
140
6.0
141
12.0
290
     0
  0
SCALE
  5
68
102
{ACAD_REACTORS
330
47
102
}
330
47
100
AcDbScale
 70
     0
300
1'-0" = 1'-0"
140
12.0
141
12.0
290
     0
  0
ENDSEC
  0
EOF
