  0
SECTION
  2
HEADER
  9
$ACADVER
  1
AC1015
  9
$ACADMAINTVER
 70
     6
  9
$DWGCODEPAGE
  3
ANSI_1256
  9
$INSBASE
 10
0.0
 20
0.0
 30
0.0
  9
$EXTMIN
 10
0.0045280071
 20
-0.0119559464
 30
0.0
  9
$EXTMAX
 10
180.2127498092
 20
90.0800165426
 30
0.0
  9
$LIMMIN
 10
0.0
 20
0.0
  9
$LIMMAX
 10
420.0
 20
297.0
  9
$ORTHOMODE
 70
     0
  9
$REGENMODE
 70
     1
  9
$FILLMODE
 70
     1
  9
$QTEXTMODE
 70
     0
  9
$MIRRTEXT
 70
     1
  9
$LTSCALE
 40
1.0
  9
$ATTMODE
 70
     1
  9
$TEXTSIZE
 40
3.175
  9
$TRACEWID
 40
1.0
  9
$TEXTSTYLE
  7
STANDARD
  9
$CLAYER
  8
0
  9
$CELTYPE
  6
ByLayer
  9
$CECOLOR
 62
   256
  9
$CELTSCALE
 40
1.0
  9
$DISPSILH
 70
     0
  9
$DIMSCALE
 40
1.0
  9
$DIMASZ
 40
3.302
  9
$DIMEXO
 40
1.27
  9
$DIMDLI
 40
3.75
  9
$DIMRND
 40
0.0
  9
$DIMDLE
 40
0.0
  9
$DIMEXE
 40
3.175
  9
$DIMTP
 40
0.0
  9
$DIMTM
 40
0.0
  9
$DIMTXT
 40
3.175
  9
$DIMCEN
 40
2.5
  9
$DIMTSZ
 40
0.0
  9
$DIMTOL
 70
     0
  9
$DIMLIM
 70
     0
  9
$DIMTIH
 70
     1
  9
$DIMTOH
 70
     1
  9
$DIMSE1
 70
     0
  9
$DIMSE2
 70
     0
  9
$DIMTAD
 70
     0
  9
$DIMZIN
 70
     0
  9
$DIMBLK
  1

  9
$DIMASO
 70
     1
  9
$DIMSHO
 70
     1
  9
$DIMPOST
  1

  9
$DIMAPOST
  1

  9
$DIMALT
 70
     0
  9
$DIMALTD
 70
     3
  9
$DIMALTF
 40
0.0393700787
  9
$DIMLFAC
 40
1.0
  9
$DIMTOFL
 70
     1
  9
$DIMTVP
 40
0.0
  9
$DIMTIX
 70
     0
  9
$DIMSOXD
 70
     0
  9
$DIMSAH
 70
     0
  9
$DIMBLK1
  1

  9
$DIMBLK2
  1

  9
$DIMSTYLE
  2
ISO-25
  9
$DIMCLRD
 70
     0
  9
$DIMCLRE
 70
     0
  9
$DIMCLRT
 70
     0
  9
$DIMTFAC
 40
1.0
  9
$DIMGAP
 40
1.524
  9
$DIMJUST
 70
     0
  9
$DIMSD1
 70
     0
  9
$DIMSD2
 70
     0
  9
$DIMTOLJ
 70
     0
  9
$DIMTZIN
 70
     0
  9
$DIMALTZ
 70
     0
  9
$DIMALTTZ
 70
     0
  9
$DIMUPT
 70
     0
  9
$DIMDEC
 70
     2
  9
$DIMTDEC
 70
     2
  9
$DIMALTU
 70
     2
  9
$DIMALTTD
 70
     3
  9
$DIMTXSTY
  7
STANDARD
  9
$DIMAUNIT
 70
     0
  9
$DIMADEC
 70
     2
  9
$DIMALTRND
 40
0.0
  9
$DIMAZIN
 70
     0
  9
$DIMDSEP
 70
    44
  9
$DIMATFIT
 70
     3
  9
$DIMFRAC
 70
     0
  9
$DIMLDRBLK
  1

  9
$DIMLUNIT
 70
     2
  9
$DIMLWD
 70
    -2
  9
$DIMLWE
 70
    -2
  9
$DIMTMOVE
 70
     0
  9
$LUNITS
 70
     2
  9
$LUPREC
 70
     2
  9
$SKETCHINC
 40
1.0
  9
$FILLETRAD
 40
10.0
  9
$AUNITS
 70
     0
  9
$AUPREC
 70
     2
  9
$MENU
  1
.
  9
$ELEVATION
 40
0.0
  9
$PELEVATION
 40
0.0
  9
$THICKNESS
 40
0.0
  9
$LIMCHECK
 70
     0
  9
$CHAMFERA
 40
0.0
  9
$CHAMFERB
 40
0.0
  9
$CHAMFERC
 40
0.0
  9
$CHAMFERD
 40
0.0
  9
$SKPOLY
 70
     0
  9
$TDCREATE
 40
2457978.853213356
  9
$TDUCREATE
 40
2457978.769880023
  9
$TDUPDATE
 40
2457978.853250335
  9
$TDUUPDATE
 40
2457978.769917002
  9
$TDINDWG
 40
0.0000000116
  9
$TDUSRTIMER
 40
0.0000000116
  9
$USRTIMER
 70
     1
  9
$ANGBASE
 50
0.0
  9
$ANGDIR
 70
     0
  9
$PDMODE
 70
     0
  9
$PDSIZE
 40
-1.0
  9
$PLINEWID
 40
0.0
  9
$SPLFRAME
 70
     0
  9
$SPLINETYPE
 70
     6
  9
$SPLINESEGS
 70
     8
  9
$HANDSEED
  5
3D3
  9
$SURFTAB1
 70
     6
  9
$SURFTAB2
 70
     6
  9
$SURFTYPE
 70
     6
  9
$SURFU
 70
     6
  9
$SURFV
 70
     6
  9
$UCSBASE
  2

  9
$UCSNAME
  2

  9
$UCSORG
 10
0.0
 20
0.0
 30
0.0
  9
$UCSXDIR
 10
1.0
 20
0.0
 30
0.0
  9
$UCSYDIR
 10
0.0
 20
1.0
 30
0.0
  9
$UCSORTHOREF
  2

  9
$UCSORTHOVIEW
 70
     0
  9
$UCSORGTOP
 10
0.0
 20
0.0
 30
0.0
  9
$UCSORGBOTTOM
 10
0.0
 20
0.0
 30
0.0
  9
$UCSORGLEFT
 10
0.0
 20
0.0
 30
0.0
  9
$UCSORGRIGHT
 10
0.0
 20
0.0
 30
0.0
  9
$UCSORGFRONT
 10
0.0
 20
0.0
 30
0.0
  9
$UCSORGBACK
 10
0.0
 20
0.0
 30
0.0
  9
$PUCSBASE
  2

  9
$PUCSNAME
  2

  9
$PUCSORG
 10
0.0
 20
0.0
 30
0.0
  9
$PUCSXDIR
 10
1.0
 20
0.0
 30
0.0
  9
$PUCSYDIR
 10
0.0
 20
1.0
 30
0.0
  9
$PUCSORTHOREF
  2

  9
$PUCSORTHOVIEW
 70
     0
  9
$PUCSORGTOP
 10
0.0
 20
0.0
 30
0.0
  9
$PUCSORGBOTTOM
 10
0.0
 20
0.0
 30
0.0
  9
$PUCSORGLEFT
 10
0.0
 20
0.0
 30
0.0
  9
$PUCSORGRIGHT
 10
0.0
 20
0.0
 30
0.0
  9
$PUCSORGFRONT
 10
0.0
 20
0.0
 30
0.0
  9
$PUCSORGBACK
 10
0.0
 20
0.0
 30
0.0
  9
$USERI1
 70
     0
  9
$USERI2
 70
     0
  9
$USERI3
 70
     0
  9
$USERI4
 70
     0
  9
$USERI5
 70
     0
  9
$USERR1
 40
0.0
  9
$USERR2
 40
0.0
  9
$USERR3
 40
0.0
  9
$USERR4
 40
0.0
  9
$USERR5
 40
0.0
  9
$WORLDVIEW
 70
     1
  9
$SHADEDGE
 70
     3
  9
$SHADEDIF
 70
    70
  9
$TILEMODE
 70
     1
  9
$MAXACTVP
 70
    64
  9
$PINSBASE
 10
0.0
 20
0.0
 30
0.0
  9
$PLIMCHECK
 70
     0
  9
$PEXTMIN
 10
1.0000000000E+20
 20
1.0000000000E+20
 30
1.0000000000E+20
  9
$PEXTMAX
 10
-1.0000000000E+20
 20
-1.0000000000E+20
 30
-1.0000000000E+20
  9
$PLIMMIN
 10
0.0
 20
0.0
  9
$PLIMMAX
 10
420.0
 20
297.0
  9
$UNITMODE
 70
     0
  9
$VISRETAIN
 70
     1
  9
$PLINEGEN
 70
     0
  9
$PSLTSCALE
 70
     1
  9
$TREEDEPTH
 70
  3020
  9
$CMLSTYLE
  2
Standard
  9
$CMLJUST
 70
     0
  9
$CMLSCALE
 40
20.0
  9
$PROXYGRAPHICS
 70
     1
  9
$MEASUREMENT
 70
     1
  9
$CELWEIGHT
370
    -1
  9
$ENDCAPS
280
     0
  9
$JOINSTYLE
280
     0
  9
$LWDISPLAY
290
     1
  9
$INSUNITS
 70
     4
  9
$HYPERLINKBASE
  1

  9
$STYLESHEET
  1

  9
$XEDIT
290
     1
  9
$CEPSNTYPE
380
     0
  9
$PSTYLEMODE
290
     1
  9
$FINGERPRINTGUID
  2
{A8586B56-D978-4B41-951D-4B2F5C8403F4}
  9
$VERSIONGUID
  2
{FAEB1C32-E019-11D5-929B-00C0DF256EC4}
  9
$EXTNAMES
290
     1
  9
$PSVPSCALE
 40
0.0
  9
$OLESTARTUP
290
     0
  0
ENDSEC
  0
SECTION
  2
CLASSES
  0
CLASS
  1
ACDBDICTIONARYWDFLT
  2
AcDbDictionaryWithDefault
  3
ObjectDBX Classes
 90
        0
280
     0
281
     0
  0
CLASS
  1
VISUALSTYLE
  2
AcDbVisualStyle
  3
ObjectDBX Classes
 90
     4095
280
     0
281
     0
  0
CLASS
  1
MATERIAL
  2
AcDbMaterial
  3
ObjectDBX Classes
 90
     1153
280
     0
281
     0
  0
CLASS
  1
SCALE
  2
AcDbScale
  3
ObjectDBX Classes
 90
     1153
280
     0
281
     0
  0
CLASS
  1
TABLESTYLE
  2
AcDbTableStyle
  3
ObjectDBX Classes
 90
     4095
280
     0
281
     0
  0
CLASS
  1
MLEADERSTYLE
  2
AcDbMLeaderStyle
  3
ACDB_MLEADERSTYLE_CLASS
 90
     4095
280
     0
281
     0
  0
CLASS
  1
SUN
  2
AcDbSun
  3
SCENEOE
 90
     1153
280
     0
281
     0
  0
CLASS
  1
ACDBPLACEHOLDER
  2
AcDbPlaceHolder
  3
ObjectDBX Classes
 90
        0
280
     0
281
     0
  0
CLASS
  1
LAYOUT
  2
AcDbLayout
  3
ObjectDBX Classes
 90
        0
280
     0
281
     0
  0
ENDSEC
  0
SECTION
  2
TABLES
  0
TABLE
  2
VPORT
  5
8
330
0
100
AcDbSymbolTable
 70
     1
  0
VPORT
  5
29
330
8
100
AcDbSymbolTableRecord
100
AcDbViewportTableRecord
  2
*Active
 70
     0
 10
0.0
 20
0.0
 11
1.0
 21
1.0
 12
90.1086389082
 22
45.0340302981
 13
0.0
 23
0.0
 14
10.0
 24
10.0
 15
10.0
 25
10.0
 16
0.0
 26
0.0
 36
1.0
 17
0.0
 27
0.0
 37
0.0
 40
91.8938119388
 41
2.0002694671
 42
50.0
 43
0.0
 44
0.0
 50
0.0
 51
0.0
 71
     0
 72
   100
 73
     1
 74
     3
 75
     0
 76
     0
 77
     0
 78
     0
281
     0
 65
     1
110
0.0
120
0.0
130
0.0
111
1.0
121
0.0
131
0.0
112
0.0
122
1.0
132
0.0
 79
     0
146
0.0
  0
ENDTAB
  0
TABLE
  2
LTYPE
  5
5
330
0
100
AcDbSymbolTable
 70
     6
  0
LTYPE
  5
14
330
5
100
AcDbSymbolTableRecord
100
AcDbLinetypeTableRecord
  2
ByBlock
 70
     0
  3

 72
    65
 73
     0
 40
0.0
  0
LTYPE
  5
15
330
5
100
AcDbSymbolTableRecord
100
AcDbLinetypeTableRecord
  2
ByLayer
 70
     0
  3

 72
    65
 73
     0
 40
0.0
  0
LTYPE
  5
16
330
5
100
AcDbSymbolTableRecord
100
AcDbLinetypeTableRecord
  2
Continuous
 70
     0
  3
Solid line
 72
    65
 73
     0
 40
0.0
  0
LTYPE
  5
6E
330
5
100
AcDbSymbolTableRecord
100
AcDbLinetypeTableRecord
  2
HIDDEN
 70
     0
  3
Hidden __ __ __ __ __ __ __ __ __ __ __ __ __ __
 72
    65
 73
     2
 40
1.905
 49
1.27
 74
     0
 49
-0.635
 74
     0
  0
LTYPE
  5
6F
330
5
100
AcDbSymbolTableRecord
100
AcDbLinetypeTableRecord
  2
PHANTOM
 70
     0
  3
Phantom ______  __  __  ______  __  __  ______
 72
    65
 73
     6
 40
12.7
 49
6.35
 74
     0
 49
-1.27
 74
     0
 49
1.27
 74
     0
 49
-1.27
 74
     0
 49
1.27
 74
     0
 49
-1.27
 74
     0
  0
LTYPE
  5
70
330
5
100
AcDbSymbolTableRecord
100
AcDbLinetypeTableRecord
  2
CENTER
 70
     0
  3
Center ____ _ ____ _ ____ _ ____ _ ____ _ ____
 72
    65
 73
     4
 40
10.16
 49
6.35
 74
     0
 49
-1.27
 74
     0
 49
1.27
 74
     0
 49
-1.27
 74
     0
  0
LTYPE
  5
71
330
5
100
AcDbSymbolTableRecord
100
AcDbLinetypeTableRecord
  2
CENTERX2
 70
     0
  3
Center (2x) ________  __  ________  __  _____
 72
    65
 73
     4
 40
20.32
 49
12.7
 74
     0
 49
-2.54
 74
     0
 49
2.54
 74
     0
 49
-2.54
 74
     0
  0
LTYPE
  5
72
330
5
100
AcDbSymbolTableRecord
100
AcDbLinetypeTableRecord
  2
DOT2
 70
     0
  3
Dot (.5x) ........................................
 72
    65
 73
     2
 40
0.635
 49
0.0
 74
     0
 49
-0.635
 74
     0
  0
ENDTAB
  0
TABLE
  2
LAYER
  5
2
330
0
100
AcDbSymbolTable
 70
     1
  0
LAYER
  5
10
330
2
100
AcDbSymbolTableRecord
100
AcDbLayerTableRecord
  2
0
 70
     0
 62
     7
  6
Continuous
370
    -3
390
F
  0
ENDTAB
  0
TABLE
  2
STYLE
  5
3
330
0
100
AcDbSymbolTable
 70
     1
  0
STYLE
  5
11
330
3
100
AcDbSymbolTableRecord
100
AcDbTextStyleTableRecord
  2
STANDARD
 70
     0
 40
0.0
 41
1.0
 50
0.0
 71
     0
 42
3.175
  3
GOTHIC.TTF
  4

1001
ACAD
1000
CENTURY GOTHIC
1071
       34
  0
ENDTAB
  0
TABLE
  2
VIEW
  5
6
330
0
100
AcDbSymbolTable
 70
     0
  0
ENDTAB
  0
TABLE
  2
UCS
  5
7
330
0
100
AcDbSymbolTable
 70
     0
  0
ENDTAB
  0
TABLE
  2
APPID
  5
9
330
0
100
AcDbSymbolTable
 70
     1
  0
APPID
  5
12
330
9
100
AcDbSymbolTableRecord
100
AcDbRegAppTableRecord
  2
ACAD
 70
     0
  0
ENDTAB
  0
TABLE
  2
DIMSTYLE
  5
A
330
0
100
AcDbSymbolTable
 70
     1
100
AcDbDimStyleTable
  0
DIMSTYLE
105
27
330
A
100
AcDbSymbolTableRecord
100
AcDbDimStyleTableRecord
  2
ISO-25
 70
     0
 41
2.5
 42
0.625
 43
3.75
 44
1.25
 73
     0
 74
     0
 77
     1
 78
     8
140
2.5
141
2.5
143
0.0393700787
147
0.625
171
     3
172
     1
178
     0
271
     2
272
     2
274
     3
278
    44
283
     0
284
     8
340
11
  0
ENDTAB
  0
TABLE
  2
BLOCK_RECORD
  5
1
330
0
100
AcDbSymbolTable
 70
     1
  0
BLOCK_RECORD
  5
1F
330
1
100
AcDbSymbolTableRecord
100
AcDbBlockTableRecord
  2
*Model_Space
340
22
  0
BLOCK_RECORD
  5
1B
330
1
100
AcDbSymbolTableRecord
100
AcDbBlockTableRecord
  2
*Paper_Space
340
1E
  0
BLOCK_RECORD
  5
23
330
1
100
AcDbSymbolTableRecord
100
AcDbBlockTableRecord
  2
*Paper_Space0
340
26
  0
ENDTAB
  0
ENDSEC
  0
SECTION
  2
BLOCKS
  0
BLOCK
  5
20
330
1F
100
AcDbEntity
  8
0
100
AcDbBlockBegin
  2
*Model_Space
 70
     0
 10
0.0
 20
0.0
 30
0.0
  3
*Model_Space
  1

  0
ENDBLK
  5
21
330
1F
100
AcDbEntity
  8
0
100
AcDbBlockEnd
  0
BLOCK
  5
1C
330
1B
100
AcDbEntity
 67
     1
  8
0
100
AcDbBlockBegin
  2
*Paper_Space
 70
     0
 10
0.0
 20
0.0
 30
0.0
  3
*Paper_Space
  1

  0
ENDBLK
  5
1D
330
1B
100
AcDbEntity
 67
     1
  8
0
100
AcDbBlockEnd
  0
BLOCK
  5
24
330
23
100
AcDbEntity
  8
0
100
AcDbBlockBegin
  2
*Paper_Space0
 70
     0
 10
0.0
 20
0.0
 30
0.0
  3
*Paper_Space0
  1

  0
ENDBLK
  5
25
330
23
100
AcDbEntity
  8
0
100
AcDbBlockEnd
  0
ENDSEC
  0
SECTION
  2
ENTITIES
  0
LINE
  5
73
330
1F
100
AcDbEntity
  8
0
  6
Continuous
 62
     7
370
    25
100
AcDbLine
 10
0.8014247423
 20
53.1676161549
 30
0.0
 11
0.0166664191
 21
53.1676161549
 31
0.0
  0
LINE
  5
74
330
1F
100
AcDbEntity
  8
0
  6
Continuous
 62
     7
370
    25
100
AcDbLine
 10
0.8014247423
 20
53.1676161549
 30
0.0
 11
0.8014247423
 21
36.9004444413
 31
0.0
  0
LINE
  5
75
330
1F
100
AcDbEntity
  8
0
  6
Continuous
 62
     7
370
    25
100
AcDbLine
 10
0.8014247423
 20
36.9004444413
 30
0.0
 11
0.0166664191
 21
36.9004444413
 31
0.0
  0
LINE
  5
76
330
1F
100
AcDbEntity
  8
0
  6
Continuous
 62
     7
370
    25
100
AcDbLine
 10
0.0166664191
 20
36.9004444413
 30
0.0
 11
0.0166664191
 21
28.7286003809
 31
0.0
  0
LINE
  5
77
330
1F
100
AcDbEntity
  8
0
  6
Continuous
 62
     7
370
    25
100
AcDbLine
 10
0.0166664191
 20
28.7286003809
 30
0.0
 11
1.4292245921
 21
28.7286003809
 31
0.0
  0
LINE
  5
78
330
1F
100
AcDbEntity
  8
0
  6
Continuous
 62
     7
370
    25
100
AcDbLine
 10
1.4292245921
 20
28.7286003809
 30
0.0
 11
1.4292245921
 21
27.6340302981
 31
0.0
  0
LINE
  5
79
330
1F
100
AcDbEntity
  8
0
  6
Continuous
 62
     7
370
    25
100
AcDbLine
 10
1.4292245921
 20
27.6340302981
 30
0.0
 11
5.9793981406
 21
27.6340302981
 31
0.0
  0
LINE
  5
7A
330
1F
100
AcDbEntity
  8
0
  6
Continuous
 62
     7
370
    25
100
AcDbLine
 10
5.9793981406
 20
27.6340302981
 30
0.0
 11
5.9793981406
 21
33.3252265927
 31
0.0
  0
LINE
  5
7B
330
1F
100
AcDbEntity
  8
0
  6
Continuous
 62
     7
370
    25
100
AcDbLine
 10
5.9793981406
 20
33.3252265927
 30
0.0
 11
9.7915573818
 21
33.3252265927
 31
0.0
  0
LINE
  5
7C
330
1F
100
AcDbEntity
  8
0
  6
Continuous
 62
     7
370
    25
100
AcDbLine
 10
9.7915573818
 20
33.3252265927
 30
0.0
 11
13.1631280819
 21
29.9536558925
 31
0.0
  0
ARC
  5
7D
330
1F
100
AcDbEntity
  8
0
  6
Continuous
 62
     7
370
    25
100
AcDbCircle
 10
11.4981738677
 20
28.2887016784
 30
0.0
 40
2.354600830415647
100
AcDbArc
 50
0.0
 51
45.0
  0
LINE
  5
7E
330
1F
100
AcDbEntity
  8
0
  6
Continuous
 62
     7
370
    25
100
AcDbLine
 10
13.8527746981
 20
28.2887016784
 30
0.0
 11
13.8527746981
 21
23.2526468841
 31
0.0
  0
LINE
  5
7F
330
1F
100
AcDbEntity
  8
0
  6
Continuous
 62
     7
370
    25
100
AcDbLine
 10
13.8527746981
 20
23.2526468841
 30
0.0
 11
14.6641948403
 21
22.5340302981
 31
0.0
  0
LINE
  5
80
330
1F
100
AcDbEntity
  8
0
  6
Continuous
 62
     7
370
    25
100
AcDbLine
 10
14.6641948403
 20
22.5340302981
 30
0.0
 11
13.8527746981
 21
21.8154137121
 31
0.0
  0
LINE
  5
81
330
1F
100
AcDbEntity
  8
0
  6
Continuous
 62
     7
370
    25
100
AcDbLine
 10
13.8527746981
 20
21.8154137121
 30
0.0
 11
13.8527746981
 21
16.7793589178
 31
0.0
  0
ARC
  5
82
330
1F
100
AcDbEntity
  8
0
  6
Continuous
 62
     7
370
    25
100
AcDbCircle
 10
11.4981738677
 20
16.7793589178
 30
0.0
 40
2.354600830415644
100
AcDbArc
 50
315.0
 51
0.0
  0
LINE
  5
83
330
1F
100
AcDbEntity
  8
0
  6
Continuous
 62
     7
370
    25
100
AcDbLine
 10
13.1631280819
 20
15.1144047036
 30
0.0
 11
9.7915573818
 21
11.7428340035
 31
0.0
  0
LINE
  5
84
330
1F
100
AcDbEntity
  8
0
  6
Continuous
 62
     7
370
    25
100
AcDbLine
 10
9.7915573818
 20
11.7428340035
 30
0.0
 11
5.9793981406
 21
11.7428340035
 31
0.0
  0
LINE
  5
85
330
1F
100
AcDbEntity
  8
0
  6
Continuous
 62
     7
370
    25
100
AcDbLine
 10
5.9793981406
 20
11.7428340035
 30
0.0
 11
5.9793981406
 21
17.4340302981
 31
0.0
  0
LINE
  5
86
330
1F
100
AcDbEntity
  8
0
  6
Continuous
 62
     7
370
    25
100
AcDbLine
 10
5.9793981406
 20
17.4340302981
 30
0.0
 11
1.4292245921
 21
17.4340302981
 31
0.0
  0
LINE
  5
87
330
1F
100
AcDbEntity
  8
0
  6
Continuous
 62
     7
370
    25
100
AcDbLine
 10
1.4292245921
 20
17.4340302981
 30
0.0
 11
1.4292245921
 21
16.3394602153
 31
0.0
  0
LINE
  5
88
330
1F
100
AcDbEntity
  8
0
  6
Continuous
 62
     7
370
    25
100
AcDbLine
 10
1.4292245921
 20
16.3394602153
 30
0.0
 11
0.0166664191
 21
16.3394602153
 31
0.0
  0
LINE
  5
89
330
1F
100
AcDbEntity
  8
0
  6
Continuous
 62
     7
370
    25
100
AcDbLine
 10
0.0166664191
 20
16.3394602153
 30
0.0
 11
0.0045289674
 21
2.4916153556
 31
0.0
  0
ARC
  5
8A
330
1F
100
AcDbEntity
  8
0
  6
Continuous
 62
     7
370
    25
100
AcDbCircle
 10
2.5045280071
 20
2.4894241397
 30
0.0
 40
2.5
100
AcDbArc
 50
179.9497810246
 51
269.9942963832
  0
LINE
  5
8B
330
1F
100
AcDbEntity
  8
0
  6
Continuous
 62
     7
370
    25
100
AcDbLine
 10
2.5042791399
 20
-0.0105758479
 30
0.0
 11
16.3680825808
 21
-0.0119559464
 31
0.0
  0
LINE
  5
8C
330
1F
100
AcDbEntity
  8
0
  6
Continuous
 62
     7
370
    25
100
AcDbLine
 10
16.3680825808
 20
-0.0119559464
 30
0.0
 11
16.3680825808
 21
1.4006022266
 31
0.0
  0
LINE
  5
8D
330
1F
100
AcDbEntity
  8
0
  6
Continuous
 62
     7
370
    25
100
AcDbLine
 10
16.3680825808
 20
1.4006022266
 30
0.0
 11
17.4626526636
 21
1.4006022266
 31
0.0
  0
LINE
  5
8E
330
1F
100
AcDbEntity
  8
0
  6
Continuous
 62
     7
370
    25
100
AcDbLine
 10
17.4626526636
 20
1.4006022266
 30
0.0
 11
17.4626526636
 21
5.9507757751
 31
0.0
  0
LINE
  5
8F
330
1F
100
AcDbEntity
  8
0
  6
Continuous
 62
     7
370
    25
100
AcDbLine
 10
17.4626526636
 20
5.9507757751
 30
0.0
 11
11.7714563691
 21
5.9507757751
 31
0.0
  0
LINE
  5
90
330
1F
100
AcDbEntity
  8
0
  6
Continuous
 62
     7
370
    25
100
AcDbLine
 10
11.7714563691
 20
5.9507757751
 30
0.0
 11
11.7714563691
 21
9.7629350162
 31
0.0
  0
LINE
  5
91
330
1F
100
AcDbEntity
  8
0
  6
Continuous
 62
     7
370
    25
100
AcDbLine
 10
11.7714563691
 20
9.7629350162
 30
0.0
 11
15.1430270692
 21
13.1345057163
 31
0.0
  0
ARC
  5
92
330
1F
100
AcDbEntity
  8
0
  6
Continuous
 62
     7
370
    25
100
AcDbCircle
 10
16.8079812834
 20
11.4695515021
 30
0.0
 40
2.354600830415654
100
AcDbArc
 50
90.0
 51
135.0
  0
LINE
  5
93
330
1F
100
AcDbEntity
  8
0
  6
Continuous
 62
     7
370
    25
100
AcDbLine
 10
16.8079812834
 20
13.8241523326
 30
0.0
 11
21.8440360776
 21
13.8241523326
 31
0.0
  0
LINE
  5
94
330
1F
100
AcDbEntity
  8
0
  6
Continuous
 62
     7
370
    25
100
AcDbLine
 10
21.8440360776
 20
13.8241523326
 30
0.0
 11
22.5626526636
 21
14.6355724747
 31
0.0
  0
LINE
  5
95
330
1F
100
AcDbEntity
  8
0
  6
Continuous
 62
     7
370
    25
100
AcDbLine
 10
22.5626526636
 20
14.6355724747
 30
0.0
 11
23.2812692497
 21
13.8241523326
 31
0.0
  0
LINE
  5
96
330
1F
100
AcDbEntity
  8
0
  6
Continuous
 62
     7
370
    25
100
AcDbLine
 10
23.2812692497
 20
13.8241523326
 30
0.0
 11
28.3173240439
 21
13.8241523326
 31
0.0
  0
ARC
  5
97
330
1F
100
AcDbEntity
  8
0
  6
Continuous
 62
     7
370
    25
100
AcDbCircle
 10
28.3173240439
 20
11.4695515021
 30
0.0
 40
2.354600830415647
100
AcDbArc
 50
45.0
 51
90.0
  0
LINE
  5
98
330
1F
100
AcDbEntity
  8
0
  6
Continuous
 62
     7
370
    25
100
AcDbLine
 10
29.9822782581
 20
13.1345057163
 30
0.0
 11
33.3538489582
 21
9.7629350162
 31
0.0
  0
LINE
  5
99
330
1F
100
AcDbEntity
  8
0
  6
Continuous
 62
     7
370
    25
100
AcDbLine
 10
33.3538489582
 20
9.7629350162
 30
0.0
 11
33.3538489582
 21
5.9507757751
 31
0.0
  0
LINE
  5
9A
330
1F
100
AcDbEntity
  8
0
  6
Continuous
 62
     7
370
    25
100
AcDbLine
 10
33.3538489582
 20
5.9507757751
 30
0.0
 11
27.6626526636
 21
5.9507757751
 31
0.0
  0
LINE
  5
9B
330
1F
100
AcDbEntity
  8
0
  6
Continuous
 62
     7
370
    25
100
AcDbLine
 10
27.6626526636
 20
5.9507757751
 30
0.0
 11
27.6626526636
 21
1.4006022266
 31
0.0
  0
LINE
  5
9C
330
1F
100
AcDbEntity
  8
0
  6
Continuous
 62
     7
370
    25
100
AcDbLine
 10
27.6626526636
 20
1.4006022266
 30
0.0
 11
28.7572227464
 21
1.4006022266
 31
0.0
  0
LINE
  5
9D
330
1F
100
AcDbEntity
  8
0
  6
Continuous
 62
     7
370
    25
100
AcDbLine
 10
28.7572227464
 20
1.4006022266
 30
0.0
 11
28.7572227464
 21
-0.0119559464
 31
0.0
  0
LINE
  5
9E
330
1F
100
AcDbEntity
  8
0
  6
Continuous
 62
     7
370
    25
100
AcDbLine
 10
28.7572227464
 20
-0.0119559464
 30
0.0
 11
36.9290668068
 21
-0.0119559464
 31
0.0
  0
LINE
  5
9F
330
1F
100
AcDbEntity
  8
0
  6
Continuous
 62
     7
370
    25
100
AcDbLine
 10
36.9290668068
 20
-0.0119559464
 30
0.0
 11
36.9290668068
 21
0.7728023767
 31
0.0
  0
LINE
  5
A0
330
1F
100
AcDbEntity
  8
0
  6
Continuous
 62
     7
370
    25
100
AcDbLine
 10
36.9290668068
 20
0.7728023767
 30
0.0
 11
53.1962385205
 21
0.7728023767
 31
0.0
  0
LINE
  5
A1
330
1F
100
AcDbEntity
  8
0
  6
Continuous
 62
     7
370
    25
100
AcDbLine
 10
53.1962385205
 20
0.7728023767
 30
0.0
 11
53.1962385205
 21
-0.0119559464
 31
0.0
  0
LINE
  5
A2
330
1F
100
AcDbEntity
  8
0
  6
Continuous
 62
     7
370
    25
100
AcDbLine
 10
53.1962385205
 20
-0.0119559464
 30
0.0
 11
61.3680825808
 21
-0.0119559464
 31
0.0
  0
LINE
  5
A3
330
1F
100
AcDbEntity
  8
0
  6
Continuous
 62
     7
370
    25
100
AcDbLine
 10
61.3680825808
 20
-0.0119559464
 30
0.0
 11
61.3680825808
 21
1.4006022266
 31
0.0
  0
LINE
  5
A4
330
1F
100
AcDbEntity
  8
0
  6
Continuous
 62
     7
370
    25
100
AcDbLine
 10
61.3680825808
 20
1.4006022266
 30
0.0
 11
62.4626526636
 21
1.4006022266
 31
0.0
  0
LINE
  5
A5
330
1F
100
AcDbEntity
  8
0
  6
Continuous
 62
     7
370
    25
100
AcDbLine
 10
62.4626526636
 20
1.4006022266
 30
0.0
 11
62.4626526636
 21
5.9507757751
 31
0.0
  0
LINE
  5
A6
330
1F
100
AcDbEntity
  8
0
  6
Continuous
 62
     7
370
    25
100
AcDbLine
 10
62.4626526636
 20
5.9507757751
 30
0.0
 11
56.7714563691
 21
5.9507757751
 31
0.0
  0
LINE
  5
A7
330
1F
100
AcDbEntity
  8
0
  6
Continuous
 62
     7
370
    25
100
AcDbLine
 10
56.7714563691
 20
5.9507757751
 30
0.0
 11
56.7714563691
 21
9.7629350162
 31
0.0
  0
LINE
  5
A8
330
1F
100
AcDbEntity
  8
0
  6
Continuous
 62
     7
370
    25
100
AcDbLine
 10
56.7714563691
 20
9.7629350162
 30
0.0
 11
60.1430270692
 21
13.1345057163
 31
0.0
  0
ARC
  5
A9
330
1F
100
AcDbEntity
  8
0
  6
Continuous
 62
     7
370
    25
100
AcDbCircle
 10
61.8079812834
 20
11.4695515021
 30
0.0
 40
2.35460083041565
100
AcDbArc
 50
90.0
 51
135.0
  0
LINE
  5
AA
330
1F
100
AcDbEntity
  8
0
  6
Continuous
 62
     7
370
    25
100
AcDbLine
 10
61.8079812834
 20
13.8241523326
 30
0.0
 11
66.8440360776
 21
13.8241523326
 31
0.0
  0
LINE
  5
AB
330
1F
100
AcDbEntity
  8
0
  6
Continuous
 62
     7
370
    25
100
AcDbLine
 10
66.8440360776
 20
13.8241523326
 30
0.0
 11
67.5626526636
 21
14.6355724747
 31
0.0
  0
LINE
  5
AC
330
1F
100
AcDbEntity
  8
0
  6
Continuous
 62
     7
370
    25
100
AcDbLine
 10
67.5626526636
 20
14.6355724747
 30
0.0
 11
68.2812692497
 21
13.8241523326
 31
0.0
  0
LINE
  5
AD
330
1F
100
AcDbEntity
  8
0
  6
Continuous
 62
     7
370
    25
100
AcDbLine
 10
68.2812692497
 20
13.8241523326
 30
0.0
 11
73.3173240439
 21
13.8241523326
 31
0.0
  0
ARC
  5
AE
330
1F
100
AcDbEntity
  8
0
  6
Continuous
 62
     7
370
    25
100
AcDbCircle
 10
73.3173240439
 20
11.4695515021
 30
0.0
 40
2.354600830415658
100
AcDbArc
 50
45.0
 51
90.0
  0
LINE
  5
AF
330
1F
100
AcDbEntity
  8
0
  6
Continuous
 62
     7
370
    25
100
AcDbLine
 10
74.9822782581
 20
13.1345057163
 30
0.0
 11
78.3538489582
 21
9.7629350162
 31
0.0
  0
LINE
  5
B0
330
1F
100
AcDbEntity
  8
0
  6
Continuous
 62
     7
370
    25
100
AcDbLine
 10
78.3538489582
 20
9.7629350162
 30
0.0
 11
78.3538489582
 21
5.9507757751
 31
0.0
  0
LINE
  5
B1
330
1F
100
AcDbEntity
  8
0
  6
Continuous
 62
     7
370
    25
100
AcDbLine
 10
78.3538489582
 20
5.9507757751
 30
0.0
 11
72.6626526636
 21
5.9507757751
 31
0.0
  0
LINE
  5
B2
330
1F
100
AcDbEntity
  8
0
  6
Continuous
 62
     7
370
    25
100
AcDbLine
 10
72.6626526636
 20
5.9507757751
 30
0.0
 11
72.6626526636
 21
1.4006022266
 31
0.0
  0
LINE
  5
B3
330
1F
100
AcDbEntity
  8
0
  6
Continuous
 62
     7
370
    25
100
AcDbLine
 10
72.6626526636
 20
1.4006022266
 30
0.0
 11
73.7572227464
 21
1.4006022266
 31
0.0
  0
LINE
  5
B4
330
1F
100
AcDbEntity
  8
0
  6
Continuous
 62
     7
370
    25
100
AcDbLine
 10
73.7572227464
 20
1.4006022266
 30
0.0
 11
73.7572227464
 21
-0.0119559464
 31
0.0
  0
LINE
  5
B5
330
1F
100
AcDbEntity
  8
0
  6
Continuous
 62
     7
370
    25
100
AcDbLine
 10
73.7572227464
 20
-0.0119559464
 30
0.0
 11
82.0116976869
 21
-0.0119559464
 31
0.0
  0
LINE
  5
B6
330
1F
100
AcDbEntity
  8
0
  6
Continuous
 62
     7
370
    25
100
AcDbLine
 10
82.0116976869
 20
-0.0119559464
 30
0.0
 11
82.0116976869
 21
0.8014247423
 31
0.0
  0
LINE
  5
B7
330
1F
100
AcDbEntity
  8
0
  6
Continuous
 62
     7
370
    25
100
AcDbLine
 10
82.0116976869
 20
0.8014247423
 30
0.0
 11
98.2055801294
 21
0.8014247423
 31
0.0
  0
LINE
  5
B8
330
1F
100
AcDbEntity
  8
0
  6
Continuous
 62
     7
370
    25
100
AcDbLine
 10
98.2055801294
 20
-0.0119559464
 30
0.0
 11
98.2055801294
 21
0.8014247423
 31
0.0
  0
LINE
  5
B9
330
1F
100
AcDbEntity
  8
0
  6
Continuous
 62
     7
370
    25
100
AcDbLine
 10
106.4600550699
 20
-0.0119559464
 30
0.0
 11
98.2055801294
 21
-0.0119559464
 31
0.0
  0
LINE
  5
BA
330
1F
100
AcDbEntity
  8
0
  6
Continuous
 62
     7
370
    25
100
AcDbLine
 10
106.4600550699
 20
1.4006022266
 30
0.0
 11
106.4600550699
 21
-0.0119559464
 31
0.0
  0
LINE
  5
BB
330
1F
100
AcDbEntity
  8
0
  6
Continuous
 62
     7
370
    25
100
AcDbLine
 10
107.5546251527
 20
1.4006022266
 30
0.0
 11
106.4600550699
 21
1.4006022266
 31
0.0
  0
LINE
  5
BC
330
1F
100
AcDbEntity
  8
0
  6
Continuous
 62
     7
370
    25
100
AcDbLine
 10
107.5546251527
 20
5.9507757751
 30
0.0
 11
107.5546251527
 21
1.4006022266
 31
0.0
  0
LINE
  5
BD
330
1F
100
AcDbEntity
  8
0
  6
Continuous
 62
     7
370
    25
100
AcDbLine
 10
101.8634288581
 20
5.9507757751
 30
0.0
 11
107.5546251527
 21
5.9507757751
 31
0.0
  0
LINE
  5
BE
330
1F
100
AcDbEntity
  8
0
  6
Continuous
 62
     7
370
    25
100
AcDbLine
 10
101.8634288581
 20
9.7629350162
 30
0.0
 11
101.8634288581
 21
5.9507757751
 31
0.0
  0
LINE
  5
BF
330
1F
100
AcDbEntity
  8
0
  6
Continuous
 62
     7
370
    25
100
AcDbLine
 10
105.2349995582
 20
13.1345057163
 30
0.0
 11
101.8634288581
 21
9.7629350162
 31
0.0
  0
ARC
  5
C0
330
1F
100
AcDbEntity
  8
0
  6
Continuous
 62
     7
370
    25
100
AcDbCircle
 10
106.8999537724
 20
11.4695515021
 30
0.0
 40
2.354600830415658
100
AcDbArc
 50
90.0
 51
135.0
  0
LINE
  5
C1
330
1F
100
AcDbEntity
  8
0
  6
Continuous
 62
     7
370
    25
100
AcDbLine
 10
111.9360085667
 20
13.8241523326
 30
0.0
 11
106.8999537724
 21
13.8241523326
 31
0.0
  0
LINE
  5
C2
330
1F
100
AcDbEntity
  8
0
  6
Continuous
 62
     7
370
    25
100
AcDbLine
 10
112.6546251527
 20
14.6355724747
 30
0.0
 11
111.9360085667
 21
13.8241523326
 31
0.0
  0
LINE
  5
C3
330
1F
100
AcDbEntity
  8
0
  6
Continuous
 62
     7
370
    25
100
AcDbLine
 10
113.3732417387
 20
13.8241523326
 30
0.0
 11
112.6546251527
 21
14.6355724747
 31
0.0
  0
LINE
  5
C4
330
1F
100
AcDbEntity
  8
0
  6
Continuous
 62
     7
370
    25
100
AcDbLine
 10
118.409296533
 20
13.8241523326
 30
0.0
 11
113.3732417387
 21
13.8241523326
 31
0.0
  0
ARC
  5
C5
330
1F
100
AcDbEntity
  8
0
  6
Continuous
 62
     7
370
    25
100
AcDbCircle
 10
118.409296533
 20
11.4695515021
 30
0.0
 40
2.35460083041565
100
AcDbArc
 50
45.0
 51
90.0
  0
LINE
  5
C6
330
1F
100
AcDbEntity
  8
0
  6
Continuous
 62
     7
370
    25
100
AcDbLine
 10
123.4458214472
 20
9.7629350162
 30
0.0
 11
120.0742507471
 21
13.1345057163
 31
0.0
  0
LINE
  5
C7
330
1F
100
AcDbEntity
  8
0
  6
Continuous
 62
     7
370
    25
100
AcDbLine
 10
123.4458214472
 20
5.9507757751
 30
0.0
 11
123.4458214472
 21
9.7629350162
 31
0.0
  0
LINE
  5
C8
330
1F
100
AcDbEntity
  8
0
  6
Continuous
 62
     7
370
    25
100
AcDbLine
 10
117.7546251527
 20
5.9507757751
 30
0.0
 11
123.4458214472
 21
5.9507757751
 31
0.0
  0
LINE
  5
C9
330
1F
100
AcDbEntity
  8
0
  6
Continuous
 62
     7
370
    25
100
AcDbLine
 10
117.7546251527
 20
1.4006022266
 30
0.0
 11
117.7546251527
 21
5.9507757751
 31
0.0
  0
LINE
  5
CA
330
1F
100
AcDbEntity
  8
0
  6
Continuous
 62
     7
370
    25
100
AcDbLine
 10
118.8491952355
 20
1.4006022266
 30
0.0
 11
117.7546251527
 21
1.4006022266
 31
0.0
  0
LINE
  5
CB
330
1F
100
AcDbEntity
  8
0
  6
Continuous
 62
     7
370
    25
100
AcDbLine
 10
118.8491952355
 20
-0.0119559464
 30
0.0
 11
118.8491952355
 21
1.4006022266
 31
0.0
  0
LINE
  5
CC
330
1F
100
AcDbEntity
  8
0
  6
Continuous
 62
     7
370
    25
100
AcDbLine
 10
127.0210392958
 20
-0.0119559464
 30
0.0
 11
118.8491952355
 21
-0.0119559464
 31
0.0
  0
LINE
  5
CD
330
1F
100
AcDbEntity
  8
0
  6
Continuous
 62
     7
370
    25
100
AcDbLine
 10
127.0210392958
 20
0.7728023767
 30
0.0
 11
127.0210392958
 21
-0.0119559464
 31
0.0
  0
LINE
  5
CE
330
1F
100
AcDbEntity
  8
0
  6
Continuous
 62
     7
370
    25
100
AcDbLine
 10
143.2882110095
 20
0.7728023767
 30
0.0
 11
127.0210392958
 21
0.7728023767
 31
0.0
  0
LINE
  5
CF
330
1F
100
AcDbEntity
  8
0
  6
Continuous
 62
     7
370
    25
100
AcDbLine
 10
143.2882110095
 20
-0.0119559464
 30
0.0
 11
143.2882110095
 21
0.7728023767
 31
0.0
  0
LINE
  5
D0
330
1F
100
AcDbEntity
  8
0
  6
Continuous
 62
     7
370
    25
100
AcDbLine
 10
151.4600550699
 20
-0.0119559464
 30
0.0
 11
143.2882110095
 21
-0.0119559464
 31
0.0
  0
LINE
  5
D1
330
1F
100
AcDbEntity
  8
0
  6
Continuous
 62
     7
370
    25
100
AcDbLine
 10
151.4600550699
 20
1.4006022266
 30
0.0
 11
151.4600550699
 21
-0.0119559464
 31
0.0
  0
LINE
  5
D2
330
1F
100
AcDbEntity
  8
0
  6
Continuous
 62
     7
370
    25
100
AcDbLine
 10
152.5546251527
 20
1.4006022266
 30
0.0
 11
151.4600550699
 21
1.4006022266
 31
0.0
  0
LINE
  5
D3
330
1F
100
AcDbEntity
  8
0
  6
Continuous
 62
     7
370
    25
100
AcDbLine
 10
152.5546251527
 20
5.9507757751
 30
0.0
 11
152.5546251527
 21
1.4006022266
 31
0.0
  0
LINE
  5
D4
330
1F
100
AcDbEntity
  8
0
  6
Continuous
 62
     7
370
    25
100
AcDbLine
 10
146.8634288581
 20
5.9507757751
 30
0.0
 11
152.5546251527
 21
5.9507757751
 31
0.0
  0
LINE
  5
D5
330
1F
100
AcDbEntity
  8
0
  6
Continuous
 62
     7
370
    25
100
AcDbLine
 10
146.8634288581
 20
9.7629350162
 30
0.0
 11
146.8634288581
 21
5.9507757751
 31
0.0
  0
LINE
  5
D6
330
1F
100
AcDbEntity
  8
0
  6
Continuous
 62
     7
370
    25
100
AcDbLine
 10
150.2349995582
 20
13.1345057163
 30
0.0
 11
146.8634288581
 21
9.7629350162
 31
0.0
  0
ARC
  5
D7
330
1F
100
AcDbEntity
  8
0
  6
Continuous
 62
     7
370
    25
100
AcDbCircle
 10
151.8999537724
 20
11.4695515021
 30
0.0
 40
2.354600830415647
100
AcDbArc
 50
90.0
 51
135.0
  0
LINE
  5
D8
330
1F
100
AcDbEntity
  8
0
  6
Continuous
 62
     7
370
    25
100
AcDbLine
 10
156.9360085667
 20
13.8241523326
 30
0.0
 11
151.8999537724
 21
13.8241523326
 31
0.0
  0
LINE
  5
D9
330
1F
100
AcDbEntity
  8
0
  6
Continuous
 62
     7
370
    25
100
AcDbLine
 10
157.6546251527
 20
14.6355724747
 30
0.0
 11
156.9360085667
 21
13.8241523326
 31
0.0
  0
LINE
  5
DA
330
1F
100
AcDbEntity
  8
0
  6
Continuous
 62
     7
370
    25
100
AcDbLine
 10
158.3732417387
 20
13.8241523326
 30
0.0
 11
157.6546251527
 21
14.6355724747
 31
0.0
  0
LINE
  5
DB
330
1F
100
AcDbEntity
  8
0
  6
Continuous
 62
     7
370
    25
100
AcDbLine
 10
163.409296533
 20
13.8241523326
 30
0.0
 11
158.3732417387
 21
13.8241523326
 31
0.0
  0
ARC
  5
DC
330
1F
100
AcDbEntity
  8
0
  6
Continuous
 62
     7
370
    25
100
AcDbCircle
 10
163.409296533
 20
11.4695515021
 30
0.0
 40
2.35460083041565
100
AcDbArc
 50
45.0
 51
90.0
  0
LINE
  5
DD
330
1F
100
AcDbEntity
  8
0
  6
Continuous
 62
     7
370
    25
100
AcDbLine
 10
168.4458214472
 20
9.7629350162
 30
0.0
 11
165.0742507471
 21
13.1345057163
 31
0.0
  0
LINE
  5
DE
330
1F
100
AcDbEntity
  8
0
  6
Continuous
 62
     7
370
    25
100
AcDbLine
 10
168.4458214472
 20
5.9507757751
 30
0.0
 11
168.4458214472
 21
9.7629350162
 31
0.0
  0
LINE
  5
DF
330
1F
100
AcDbEntity
  8
0
  6
Continuous
 62
     7
370
    25
100
AcDbLine
 10
162.7546251527
 20
5.9507757751
 30
0.0
 11
168.4458214472
 21
5.9507757751
 31
0.0
  0
LINE
  5
E0
330
1F
100
AcDbEntity
  8
0
  6
Continuous
 62
     7
370
    25
100
AcDbLine
 10
162.7546251527
 20
1.4006022266
 30
0.0
 11
162.7546251527
 21
5.9507757751
 31
0.0
  0
LINE
  5
E1
330
1F
100
AcDbEntity
  8
0
  6
Continuous
 62
     7
370
    25
100
AcDbLine
 10
163.8491952355
 20
1.4006022266
 30
0.0
 11
162.7546251527
 21
1.4006022266
 31
0.0
  0
LINE
  5
E2
330
1F
100
AcDbEntity
  8
0
  6
Continuous
 62
     7
370
    25
100
AcDbLine
 10
163.8491952355
 20
-0.0119559464
 30
0.0
 11
163.8491952355
 21
1.4006022266
 31
0.0
  0
LINE
  5
E3
330
1F
100
AcDbEntity
  8
0
  6
Continuous
 62
     7
370
    25
100
AcDbLine
 10
177.7129986764
 20
-0.0105758479
 30
0.0
 11
163.8491952355
 21
-0.0119559464
 31
0.0
  0
ARC
  5
E4
330
1F
100
AcDbEntity
  8
0
  6
Continuous
 62
     7
370
    25
100
AcDbCircle
 10
177.7127498092
 20
2.4894241397
 30
0.0
 40
2.5
100
AcDbArc
 50
270.0057036168
 51
0.0502189754
  0
LINE
  5
E5
330
1F
100
AcDbEntity
  8
0
  6
Continuous
 62
     7
370
    25
100
AcDbLine
 10
180.2006113972
 20
16.3394602153
 30
0.0
 11
180.2127488489
 21
2.4916153556
 31
0.0
  0
LINE
  5
E6
330
1F
100
AcDbEntity
  8
0
  6
Continuous
 62
     7
370
    25
100
AcDbLine
 10
178.7880532242
 20
16.3394602153
 30
0.0
 11
180.2006113972
 21
16.3394602153
 31
0.0
  0
LINE
  5
E7
330
1F
100
AcDbEntity
  8
0
  6
Continuous
 62
     7
370
    25
100
AcDbLine
 10
178.7880532242
 20
17.4340302981
 30
0.0
 11
178.7880532242
 21
16.3394602153
 31
0.0
  0
LINE
  5
E8
330
1F
100
AcDbEntity
  8
0
  6
Continuous
 62
     7
370
    25
100
AcDbLine
 10
174.2378796757
 20
17.4340302981
 30
0.0
 11
178.7880532242
 21
17.4340302981
 31
0.0
  0
LINE
  5
E9
330
1F
100
AcDbEntity
  8
0
  6
Continuous
 62
     7
370
    25
100
AcDbLine
 10
174.2378796757
 20
11.7428340035
 30
0.0
 11
174.2378796757
 21
17.4340302981
 31
0.0
  0
LINE
  5
EA
330
1F
100
AcDbEntity
  8
0
  6
Continuous
 62
     7
370
    25
100
AcDbLine
 10
170.4257204346
 20
11.7428340035
 30
0.0
 11
174.2378796757
 21
11.7428340035
 31
0.0
  0
LINE
  5
EB
330
1F
100
AcDbEntity
  8
0
  6
Continuous
 62
     7
370
    25
100
AcDbLine
 10
167.0541497345
 20
15.1144047036
 30
0.0
 11
170.4257204346
 21
11.7428340035
 31
0.0
  0
ARC
  5
EC
330
1F
100
AcDbEntity
  8
0
  6
Continuous
 62
     7
370
    25
100
AcDbCircle
 10
168.7191039486
 20
16.7793589178
 30
0.0
 40
2.35460083041564
100
AcDbArc
 50
180.0
 51
225.0
  0
LINE
  5
ED
330
1F
100
AcDbEntity
  8
0
  6
Continuous
 62
     7
370
    25
100
AcDbLine
 10
166.3645031182
 20
21.8154137121
 30
0.0
 11
166.3645031182
 21
16.7793589178
 31
0.0
  0
LINE
  5
EE
330
1F
100
AcDbEntity
  8
0
  6
Continuous
 62
     7
370
    25
100
AcDbLine
 10
165.553082976
 20
22.5340302981
 30
0.0
 11
166.3645031182
 21
21.8154137121
 31
0.0
  0
LINE
  5
EF
330
1F
100
AcDbEntity
  8
0
  6
Continuous
 62
     7
370
    25
100
AcDbLine
 10
166.3645031182
 20
23.2526468841
 30
0.0
 11
165.553082976
 21
22.5340302981
 31
0.0
  0
LINE
  5
F0
330
1F
100
AcDbEntity
  8
0
  6
Continuous
 62
     7
370
    25
100
AcDbLine
 10
166.3645031182
 20
28.2887016784
 30
0.0
 11
166.3645031182
 21
23.2526468841
 31
0.0
  0
ARC
  5
F1
330
1F
100
AcDbEntity
  8
0
  6
Continuous
 62
     7
370
    25
100
AcDbCircle
 10
168.7191039486
 20
28.2887016784
 30
0.0
 40
2.354600830415641
100
AcDbArc
 50
135.0
 51
180.0
  0
LINE
  5
F2
330
1F
100
AcDbEntity
  8
0
  6
Continuous
 62
     7
370
    25
100
AcDbLine
 10
170.4257204346
 20
33.3252265927
 30
0.0
 11
167.0541497345
 21
29.9536558925
 31
0.0
  0
LINE
  5
F3
330
1F
100
AcDbEntity
  8
0
  6
Continuous
 62
     7
370
    25
100
AcDbLine
 10
174.2378796757
 20
33.3252265927
 30
0.0
 11
170.4257204346
 21
33.3252265927
 31
0.0
  0
LINE
  5
F4
330
1F
100
AcDbEntity
  8
0
  6
Continuous
 62
     7
370
    25
100
AcDbLine
 10
174.2378796757
 20
27.6340302981
 30
0.0
 11
174.2378796757
 21
33.3252265927
 31
0.0
  0
LINE
  5
F5
330
1F
100
AcDbEntity
  8
0
  6
Continuous
 62
     7
370
    25
100
AcDbLine
 10
178.7880532242
 20
27.6340302981
 30
0.0
 11
174.2378796757
 21
27.6340302981
 31
0.0
  0
LINE
  5
F6
330
1F
100
AcDbEntity
  8
0
  6
Continuous
 62
     7
370
    25
100
AcDbLine
 10
178.7880532242
 20
28.7286003809
 30
0.0
 11
178.7880532242
 21
27.6340302981
 31
0.0
  0
LINE
  5
F7
330
1F
100
AcDbEntity
  8
0
  6
Continuous
 62
     7
370
    25
100
AcDbLine
 10
180.2006113972
 20
28.7286003809
 30
0.0
 11
178.7880532242
 21
28.7286003809
 31
0.0
  0
LINE
  5
F8
330
1F
100
AcDbEntity
  8
0
  6
Continuous
 62
     7
370
    25
100
AcDbLine
 10
180.2006113972
 20
36.9004444413
 30
0.0
 11
180.2006113972
 21
28.7286003809
 31
0.0
  0
LINE
  5
F9
330
1F
100
AcDbEntity
  8
0
  6
Continuous
 62
     7
370
    25
100
AcDbLine
 10
179.415853074
 20
36.9004444413
 30
0.0
 11
180.2006113972
 21
36.9004444413
 31
0.0
  0
LINE
  5
FA
330
1F
100
AcDbEntity
  8
0
  6
Continuous
 62
     7
370
    25
100
AcDbLine
 10
179.415853074
 20
53.1676161549
 30
0.0
 11
179.415853074
 21
36.9004444413
 31
0.0
  0
LINE
  5
FB
330
1F
100
AcDbEntity
  8
0
  6
Continuous
 62
     7
370
    25
100
AcDbLine
 10
179.415853074
 20
53.1676161549
 30
0.0
 11
180.2006113972
 21
53.1676161549
 31
0.0
  0
LINE
  5
FC
330
1F
100
AcDbEntity
  8
0
  6
Continuous
 62
     7
370
    25
100
AcDbLine
 10
180.2006113972
 20
53.1676161549
 30
0.0
 11
180.2006113972
 21
61.3394602153
 31
0.0
  0
LINE
  5
FD
330
1F
100
AcDbEntity
  8
0
  6
Continuous
 62
     7
370
    25
100
AcDbLine
 10
180.2006113972
 20
61.3394602153
 30
0.0
 11
178.7880532242
 21
61.3394602153
 31
0.0
  0
LINE
  5
FE
330
1F
100
AcDbEntity
  8
0
  6
Continuous
 62
     7
370
    25
100
AcDbLine
 10
178.7880532242
 20
61.3394602153
 30
0.0
 11
178.7880532242
 21
62.4340302981
 31
0.0
  0
LINE
  5
FF
330
1F
100
AcDbEntity
  8
0
  6
Continuous
 62
     7
370
    25
100
AcDbLine
 10
178.7880532242
 20
62.4340302981
 30
0.0
 11
174.2378796757
 21
62.4340302981
 31
0.0
  0
LINE
  5
100
330
1F
100
AcDbEntity
  8
0
  6
Continuous
 62
     7
370
    25
100
AcDbLine
 10
174.2378796757
 20
62.4340302981
 30
0.0
 11
174.2378796757
 21
56.7428340035
 31
0.0
  0
LINE
  5
101
330
1F
100
AcDbEntity
  8
0
  6
Continuous
 62
     7
370
    25
100
AcDbLine
 10
174.2378796757
 20
56.7428340035
 30
0.0
 11
170.4257204346
 21
56.7428340035
 31
0.0
  0
LINE
  5
102
330
1F
100
AcDbEntity
  8
0
  6
Continuous
 62
     7
370
    25
100
AcDbLine
 10
170.4257204346
 20
56.7428340035
 30
0.0
 11
167.0541497345
 21
60.1144047036
 31
0.0
  0
ARC
  5
103
330
1F
100
AcDbEntity
  8
0
  6
Continuous
 62
     7
370
    25
100
AcDbCircle
 10
168.7191039486
 20
61.7793589178
 30
0.0
 40
2.354600830415641
100
AcDbArc
 50
180.0
 51
225.0
  0
LINE
  5
104
330
1F
100
AcDbEntity
  8
0
  6
Continuous
 62
     7
370
    25
100
AcDbLine
 10
166.3645031182
 20
61.7793589178
 30
0.0
 11
166.3645031182
 21
66.8154137121
 31
0.0
  0
LINE
  5
105
330
1F
100
AcDbEntity
  8
0
  6
Continuous
 62
     7
370
    25
100
AcDbLine
 10
166.3645031182
 20
66.8154137121
 30
0.0
 11
165.553082976
 21
67.5340302981
 31
0.0
  0
LINE
  5
106
330
1F
100
AcDbEntity
  8
0
  6
Continuous
 62
     7
370
    25
100
AcDbLine
 10
165.553082976
 20
67.5340302981
 30
0.0
 11
166.3645031182
 21
68.2526468841
 31
0.0
  0
LINE
  5
107
330
1F
100
AcDbEntity
  8
0
  6
Continuous
 62
     7
370
    25
100
AcDbLine
 10
166.3645031182
 20
68.2526468841
 30
0.0
 11
166.3645031182
 21
73.2887016784
 31
0.0
  0
ARC
  5
108
330
1F
100
AcDbEntity
  8
0
  6
Continuous
 62
     7
370
    25
100
AcDbCircle
 10
168.7191039486
 20
73.2887016784
 30
0.0
 40
2.354600830415646
100
AcDbArc
 50
135.0
 51
180.0
  0
LINE
  5
109
330
1F
100
AcDbEntity
  8
0
  6
Continuous
 62
     7
370
    25
100
AcDbLine
 10
167.0541497345
 20
74.9536558925
 30
0.0
 11
170.4257204346
 21
78.3252265927
 31
0.0
  0
LINE
  5
10A
330
1F
100
AcDbEntity
  8
0
  6
Continuous
 62
     7
370
    25
100
AcDbLine
 10
170.4257204346
 20
78.3252265927
 30
0.0
 11
174.2378796757
 21
78.3252265927
 31
0.0
  0
LINE
  5
10B
330
1F
100
AcDbEntity
  8
0
  6
Continuous
 62
     7
370
    25
100
AcDbLine
 10
174.2378796757
 20
78.3252265927
 30
0.0
 11
174.2378796757
 21
72.6340302981
 31
0.0
  0
LINE
  5
10C
330
1F
100
AcDbEntity
  8
0
  6
Continuous
 62
     7
370
    25
100
AcDbLine
 10
174.2378796757
 20
72.6340302981
 30
0.0
 11
178.7880532242
 21
72.6340302981
 31
0.0
  0
LINE
  5
10D
330
1F
100
AcDbEntity
  8
0
  6
Continuous
 62
     7
370
    25
100
AcDbLine
 10
178.7880532242
 20
72.6340302981
 30
0.0
 11
178.7880532242
 21
73.7286003809
 31
0.0
  0
LINE
  5
10E
330
1F
100
AcDbEntity
  8
0
  6
Continuous
 62
     7
370
    25
100
AcDbLine
 10
178.7880532242
 20
73.7286003809
 30
0.0
 11
180.2006113972
 21
73.7286003809
 31
0.0
  0
LINE
  5
10F
330
1F
100
AcDbEntity
  8
0
  6
Continuous
 62
     7
370
    25
100
AcDbLine
 10
180.2006113972
 20
73.7286003809
 30
0.0
 11
180.2127488489
 21
87.5764452406
 31
0.0
  0
ARC
  5
110
330
1F
100
AcDbEntity
  8
0
  6
Continuous
 62
     7
370
    25
100
AcDbCircle
 10
177.7127498092
 20
87.5786364564
 30
0.0
 40
2.500000000000003
100
AcDbArc
 50
359.9497810246
 51
89.9942963832
  0
LINE
  5
111
330
1F
100
AcDbEntity
  8
0
  6
Continuous
 62
     7
370
    25
100
AcDbLine
 10
177.7129986764
 20
90.0786364441
 30
0.0
 11
163.8491952355
 21
90.0800165426
 31
0.0
  0
LINE
  5
112
330
1F
100
AcDbEntity
  8
0
  6
Continuous
 62
     7
370
    25
100
AcDbLine
 10
163.8491952355
 20
90.0800165426
 30
0.0
 11
163.8491952355
 21
88.6674583696
 31
0.0
  0
LINE
  5
113
330
1F
100
AcDbEntity
  8
0
  6
Continuous
 62
     7
370
    25
100
AcDbLine
 10
163.8491952355
 20
88.6674583696
 30
0.0
 11
162.7546251527
 21
88.6674583696
 31
0.0
  0
LINE
  5
114
330
1F
100
AcDbEntity
  8
0
  6
Continuous
 62
     7
370
    25
100
AcDbLine
 10
162.7546251527
 20
88.6674583696
 30
0.0
 11
162.7546251527
 21
84.1172848211
 31
0.0
  0
LINE
  5
115
330
1F
100
AcDbEntity
  8
0
  6
Continuous
 62
     7
370
    25
100
AcDbLine
 10
162.7546251527
 20
84.1172848211
 30
0.0
 11
168.4458214472
 21
84.1172848211
 31
0.0
  0
LINE
  5
116
330
1F
100
AcDbEntity
  8
0
  6
Continuous
 62
     7
370
    25
100
AcDbLine
 10
168.4458214472
 20
84.1172848211
 30
0.0
 11
168.4458214472
 21
80.30512558
 31
0.0
  0
LINE
  5
117
330
1F
100
AcDbEntity
  8
0
  6
Continuous
 62
     7
370
    25
100
AcDbLine
 10
168.4458214472
 20
80.30512558
 30
0.0
 11
165.0742507471
 21
76.9335548799
 31
0.0
  0
ARC
  5
118
330
1F
100
AcDbEntity
  8
0
  6
Continuous
 62
     7
370
    25
100
AcDbCircle
 10
163.409296533
 20
78.598509094
 30
0.0
 40
2.354600830415649
100
AcDbArc
 50
270.0
 51
315.0
  0
LINE
  5
119
330
1F
100
AcDbEntity
  8
0
  6
Continuous
 62
     7
370
    25
100
AcDbLine
 10
163.409296533
 20
76.2439082636
 30
0.0
 11
158.3732417387
 21
76.2439082636
 31
0.0
  0
LINE
  5
11A
330
1F
100
AcDbEntity
  8
0
  6
Continuous
 62
     7
370
    25
100
AcDbLine
 10
158.3732417387
 20
76.2439082636
 30
0.0
 11
157.6546251527
 21
75.4324881215
 31
0.0
  0
LINE
  5
11B
330
1F
100
AcDbEntity
  8
0
  6
Continuous
 62
     7
370
    25
100
AcDbLine
 10
157.6546251527
 20
75.4324881215
 30
0.0
 11
156.9360085667
 21
76.2439082636
 31
0.0
  0
LINE
  5
11C
330
1F
100
AcDbEntity
  8
0
  6
Continuous
 62
     7
370
    25
100
AcDbLine
 10
156.9360085667
 20
76.2439082636
 30
0.0
 11
151.8999537724
 21
76.2439082636
 31
0.0
  0
ARC
  5
11D
330
1F
100
AcDbEntity
  8
0
  6
Continuous
 62
     7
370
    25
100
AcDbCircle
 10
151.8999537724
 20
78.598509094
 30
0.0
 40
2.354600830415635
100
AcDbArc
 50
225.0
 51
270.0
  0
LINE
  5
11E
330
1F
100
AcDbEntity
  8
0
  6
Continuous
 62
     7
370
    25
100
AcDbLine
 10
150.2349995582
 20
76.9335548799
 30
0.0
 11
146.8634288581
 21
80.30512558
 31
0.0
  0
LINE
  5
11F
330
1F
100
AcDbEntity
  8
0
  6
Continuous
 62
     7
370
    25
100
AcDbLine
 10
146.8634288581
 20
80.30512558
 30
0.0
 11
146.8634288581
 21
84.1172848211
 31
0.0
  0
LINE
  5
120
330
1F
100
AcDbEntity
  8
0
  6
Continuous
 62
     7
370
    25
100
AcDbLine
 10
146.8634288581
 20
84.1172848211
 30
0.0
 11
152.5546251527
 21
84.1172848211
 31
0.0
  0
LINE
  5
121
330
1F
100
AcDbEntity
  8
0
  6
Continuous
 62
     7
370
    25
100
AcDbLine
 10
152.5546251527
 20
84.1172848211
 30
0.0
 11
152.5546251527
 21
88.6674583696
 31
0.0
  0
LINE
  5
122
330
1F
100
AcDbEntity
  8
0
  6
Continuous
 62
     7
370
    25
100
AcDbLine
 10
152.5546251527
 20
88.6674583696
 30
0.0
 11
151.4600550699
 21
88.6674583696
 31
0.0
  0
LINE
  5
123
330
1F
100
AcDbEntity
  8
0
  6
Continuous
 62
     7
370
    25
100
AcDbLine
 10
151.4600550699
 20
88.6674583696
 30
0.0
 11
151.4600550699
 21
90.0800165426
 31
0.0
  0
LINE
  5
124
330
1F
100
AcDbEntity
  8
0
  6
Continuous
 62
     7
370
    25
100
AcDbLine
 10
151.4600550699
 20
90.0800165426
 30
0.0
 11
143.2882110095
 21
90.0800165426
 31
0.0
  0
LINE
  5
125
330
1F
100
AcDbEntity
  8
0
  6
Continuous
 62
     7
370
    25
100
AcDbLine
 10
143.2882110095
 20
90.0800165426
 30
0.0
 11
143.2882110095
 21
89.2952582195
 31
0.0
  0
LINE
  5
126
330
1F
100
AcDbEntity
  8
0
  6
Continuous
 62
     7
370
    25
100
AcDbLine
 10
143.2882110095
 20
89.2952582195
 30
0.0
 11
127.0210392958
 21
89.2952582195
 31
0.0
  0
LINE
  5
127
330
1F
100
AcDbEntity
  8
0
  6
Continuous
 62
     7
370
    25
100
AcDbLine
 10
127.0210392958
 20
89.2952582195
 30
0.0
 11
127.0210392958
 21
90.0800165426
 31
0.0
  0
LINE
  5
128
330
1F
100
AcDbEntity
  8
0
  6
Continuous
 62
     7
370
    25
100
AcDbLine
 10
127.0210392958
 20
90.0800165426
 30
0.0
 11
118.8491952355
 21
90.0800165426
 31
0.0
  0
LINE
  5
129
330
1F
100
AcDbEntity
  8
0
  6
Continuous
 62
     7
370
    25
100
AcDbLine
 10
118.8491952355
 20
90.0800165426
 30
0.0
 11
118.8491952355
 21
88.6674583696
 31
0.0
  0
LINE
  5
12A
330
1F
100
AcDbEntity
  8
0
  6
Continuous
 62
     7
370
    25
100
AcDbLine
 10
118.8491952355
 20
88.6674583696
 30
0.0
 11
117.7546251527
 21
88.6674583696
 31
0.0
  0
LINE
  5
12B
330
1F
100
AcDbEntity
  8
0
  6
Continuous
 62
     7
370
    25
100
AcDbLine
 10
117.7546251527
 20
88.6674583696
 30
0.0
 11
117.7546251527
 21
84.1172848211
 31
0.0
  0
LINE
  5
12C
330
1F
100
AcDbEntity
  8
0
  6
Continuous
 62
     7
370
    25
100
AcDbLine
 10
117.7546251527
 20
84.1172848211
 30
0.0
 11
123.4458214472
 21
84.1172848211
 31
0.0
  0
LINE
  5
12D
330
1F
100
AcDbEntity
  8
0
  6
Continuous
 62
     7
370
    25
100
AcDbLine
 10
123.4458214472
 20
84.1172848211
 30
0.0
 11
123.4458214472
 21
80.30512558
 31
0.0
  0
LINE
  5
12E
330
1F
100
AcDbEntity
  8
0
  6
Continuous
 62
     7
370
    25
100
AcDbLine
 10
123.4458214472
 20
80.30512558
 30
0.0
 11
120.0742507471
 21
76.9335548799
 31
0.0
  0
ARC
  5
12F
330
1F
100
AcDbEntity
  8
0
  6
Continuous
 62
     7
370
    25
100
AcDbCircle
 10
118.409296533
 20
78.598509094
 30
0.0
 40
2.354600830415635
100
AcDbArc
 50
270.0
 51
315.0
  0
LINE
  5
130
330
1F
100
AcDbEntity
  8
0
  6
Continuous
 62
     7
370
    25
100
AcDbLine
 10
118.409296533
 20
76.2439082636
 30
0.0
 11
113.3732417387
 21
76.2439082636
 31
0.0
  0
LINE
  5
131
330
1F
100
AcDbEntity
  8
0
  6
Continuous
 62
     7
370
    25
100
AcDbLine
 10
113.3732417387
 20
76.2439082636
 30
0.0
 11
112.6546251527
 21
75.4324881215
 31
0.0
  0
LINE
  5
132
330
1F
100
AcDbEntity
  8
0
  6
Continuous
 62
     7
370
    25
100
AcDbLine
 10
112.6546251527
 20
75.4324881215
 30
0.0
 11
111.9360085667
 21
76.2439082636
 31
0.0
  0
LINE
  5
133
330
1F
100
AcDbEntity
  8
0
  6
Continuous
 62
     7
370
    25
100
AcDbLine
 10
111.9360085667
 20
76.2439082636
 30
0.0
 11
106.8999537724
 21
76.2439082636
 31
0.0
  0
ARC
  5
134
330
1F
100
AcDbEntity
  8
0
  6
Continuous
 62
     7
370
    25
100
AcDbCircle
 10
106.8999537724
 20
78.598509094
 30
0.0
 40
2.354600830415649
100
AcDbArc
 50
225.0
 51
270.0
  0
LINE
  5
135
330
1F
100
AcDbEntity
  8
0
  6
Continuous
 62
     7
370
    25
100
AcDbLine
 10
105.2349995582
 20
76.9335548799
 30
0.0
 11
101.8634288581
 21
80.30512558
 31
0.0
  0
LINE
  5
136
330
1F
100
AcDbEntity
  8
0
  6
Continuous
 62
     7
370
    25
100
AcDbLine
 10
101.8634288581
 20
80.30512558
 30
0.0
 11
101.8634288581
 21
84.1172848211
 31
0.0
  0
LINE
  5
137
330
1F
100
AcDbEntity
  8
0
  6
Continuous
 62
     7
370
    25
100
AcDbLine
 10
101.8634288581
 20
84.1172848211
 30
0.0
 11
107.5546251527
 21
84.1172848211
 31
0.0
  0
LINE
  5
138
330
1F
100
AcDbEntity
  8
0
  6
Continuous
 62
     7
370
    25
100
AcDbLine
 10
107.5546251527
 20
84.1172848211
 30
0.0
 11
107.5546251527
 21
88.6674583696
 31
0.0
  0
LINE
  5
139
330
1F
100
AcDbEntity
  8
0
  6
Continuous
 62
     7
370
    25
100
AcDbLine
 10
107.5546251527
 20
88.6674583696
 30
0.0
 11
106.4600550699
 21
88.6674583696
 31
0.0
  0
LINE
  5
13A
330
1F
100
AcDbEntity
  8
0
  6
Continuous
 62
     7
370
    25
100
AcDbLine
 10
106.4600550699
 20
88.6674583696
 30
0.0
 11
106.4600550699
 21
90.0800165426
 31
0.0
  0
LINE
  5
13B
330
1F
100
AcDbEntity
  8
0
  6
Continuous
 62
     7
370
    25
100
AcDbLine
 10
106.4600550699
 20
90.0800165426
 30
0.0
 11
98.2055801294
 21
90.0800165426
 31
0.0
  0
LINE
  5
13C
330
1F
100
AcDbEntity
  8
0
  6
Continuous
 62
     7
370
    25
100
AcDbLine
 10
98.2055801294
 20
90.0800165426
 30
0.0
 11
98.2055801294
 21
89.2666358539
 31
0.0
  0
LINE
  5
13D
330
1F
100
AcDbEntity
  8
0
  6
Continuous
 62
     7
370
    25
100
AcDbLine
 10
82.0116976869
 20
89.2666358539
 30
0.0
 11
98.2055801294
 21
89.2666358539
 31
0.0
  0
LINE
  5
13E
330
1F
100
AcDbEntity
  8
0
  6
Continuous
 62
     7
370
    25
100
AcDbLine
 10
82.0116976869
 20
90.0800165426
 30
0.0
 11
82.0116976869
 21
89.2666358539
 31
0.0
  0
LINE
  5
13F
330
1F
100
AcDbEntity
  8
0
  6
Continuous
 62
     7
370
    25
100
AcDbLine
 10
73.7572227464
 20
90.0800165426
 30
0.0
 11
82.0116976869
 21
90.0800165426
 31
0.0
  0
LINE
  5
140
330
1F
100
AcDbEntity
  8
0
  6
Continuous
 62
     7
370
    25
100
AcDbLine
 10
73.7572227464
 20
88.6674583696
 30
0.0
 11
73.7572227464
 21
90.0800165426
 31
0.0
  0
LINE
  5
141
330
1F
100
AcDbEntity
  8
0
  6
Continuous
 62
     7
370
    25
100
AcDbLine
 10
72.6626526636
 20
88.6674583696
 30
0.0
 11
73.7572227464
 21
88.6674583696
 31
0.0
  0
LINE
  5
142
330
1F
100
AcDbEntity
  8
0
  6
Continuous
 62
     7
370
    25
100
AcDbLine
 10
72.6626526636
 20
84.1172848211
 30
0.0
 11
72.6626526636
 21
88.6674583696
 31
0.0
  0
LINE
  5
143
330
1F
100
AcDbEntity
  8
0
  6
Continuous
 62
     7
370
    25
100
AcDbLine
 10
78.3538489582
 20
84.1172848211
 30
0.0
 11
72.6626526636
 21
84.1172848211
 31
0.0
  0
LINE
  5
144
330
1F
100
AcDbEntity
  8
0
  6
Continuous
 62
     7
370
    25
100
AcDbLine
 10
78.3538489582
 20
80.30512558
 30
0.0
 11
78.3538489582
 21
84.1172848211
 31
0.0
  0
LINE
  5
145
330
1F
100
AcDbEntity
  8
0
  6
Continuous
 62
     7
370
    25
100
AcDbLine
 10
74.9822782581
 20
76.9335548799
 30
0.0
 11
78.3538489582
 21
80.30512558
 31
0.0
  0
ARC
  5
146
330
1F
100
AcDbEntity
  8
0
  6
Continuous
 62
     7
370
    25
100
AcDbCircle
 10
73.3173240439
 20
78.598509094
 30
0.0
 40
2.354600830415649
100
AcDbArc
 50
270.0
 51
315.0
  0
LINE
  5
147
330
1F
100
AcDbEntity
  8
0
  6
Continuous
 62
     7
370
    25
100
AcDbLine
 10
68.2812692497
 20
76.2439082636
 30
0.0
 11
73.3173240439
 21
76.2439082636
 31
0.0
  0
LINE
  5
148
330
1F
100
AcDbEntity
  8
0
  6
Continuous
 62
     7
370
    25
100
AcDbLine
 10
67.5626526636
 20
75.4324881215
 30
0.0
 11
68.2812692497
 21
76.2439082636
 31
0.0
  0
LINE
  5
149
330
1F
100
AcDbEntity
  8
0
  6
Continuous
 62
     7
370
    25
100
AcDbLine
 10
66.8440360776
 20
76.2439082636
 30
0.0
 11
67.5626526636
 21
75.4324881215
 31
0.0
  0
LINE
  5
14A
330
1F
100
AcDbEntity
  8
0
  6
Continuous
 62
     7
370
    25
100
AcDbLine
 10
61.8079812834
 20
76.2439082636
 30
0.0
 11
66.8440360776
 21
76.2439082636
 31
0.0
  0
ARC
  5
14B
330
1F
100
AcDbEntity
  8
0
  6
Continuous
 62
     7
370
    25
100
AcDbCircle
 10
61.8079812834
 20
78.598509094
 30
0.0
 40
2.354600830415635
100
AcDbArc
 50
225.0
 51
270.0
  0
LINE
  5
14C
330
1F
100
AcDbEntity
  8
0
  6
Continuous
 62
     7
370
    25
100
AcDbLine
 10
56.7714563691
 20
80.30512558
 30
0.0
 11
60.1430270692
 21
76.9335548799
 31
0.0
  0
LINE
  5
14D
330
1F
100
AcDbEntity
  8
0
  6
Continuous
 62
     7
370
    25
100
AcDbLine
 10
56.7714563691
 20
84.1172848211
 30
0.0
 11
56.7714563691
 21
80.30512558
 31
0.0
  0
LINE
  5
14E
330
1F
100
AcDbEntity
  8
0
  6
Continuous
 62
     7
370
    25
100
AcDbLine
 10
62.4626526636
 20
84.1172848211
 30
0.0
 11
56.7714563691
 21
84.1172848211
 31
0.0
  0
LINE
  5
14F
330
1F
100
AcDbEntity
  8
0
  6
Continuous
 62
     7
370
    25
100
AcDbLine
 10
62.4626526636
 20
88.6674583696
 30
0.0
 11
62.4626526636
 21
84.1172848211
 31
0.0
  0
LINE
  5
150
330
1F
100
AcDbEntity
  8
0
  6
Continuous
 62
     7
370
    25
100
AcDbLine
 10
61.3680825808
 20
88.6674583696
 30
0.0
 11
62.4626526636
 21
88.6674583696
 31
0.0
  0
LINE
  5
151
330
1F
100
AcDbEntity
  8
0
  6
Continuous
 62
     7
370
    25
100
AcDbLine
 10
61.3680825808
 20
90.0800165426
 30
0.0
 11
61.3680825808
 21
88.6674583696
 31
0.0
  0
LINE
  5
152
330
1F
100
AcDbEntity
  8
0
  6
Continuous
 62
     7
370
    25
100
AcDbLine
 10
53.1962385205
 20
90.0800165426
 30
0.0
 11
61.3680825808
 21
90.0800165426
 31
0.0
  0
LINE
  5
153
330
1F
100
AcDbEntity
  8
0
  6
Continuous
 62
     7
370
    25
100
AcDbLine
 10
53.1962385205
 20
89.2952582195
 30
0.0
 11
53.1962385205
 21
90.0800165426
 31
0.0
  0
LINE
  5
154
330
1F
100
AcDbEntity
  8
0
  6
Continuous
 62
     7
370
    25
100
AcDbLine
 10
36.9290668068
 20
89.2952582195
 30
0.0
 11
53.1962385205
 21
89.2952582195
 31
0.0
  0
LINE
  5
155
330
1F
100
AcDbEntity
  8
0
  6
Continuous
 62
     7
370
    25
100
AcDbLine
 10
36.9290668068
 20
90.0800165426
 30
0.0
 11
36.9290668068
 21
89.2952582195
 31
0.0
  0
LINE
  5
156
330
1F
100
AcDbEntity
  8
0
  6
Continuous
 62
     7
370
    25
100
AcDbLine
 10
28.7572227464
 20
90.0800165426
 30
0.0
 11
36.9290668068
 21
90.0800165426
 31
0.0
  0
LINE
  5
157
330
1F
100
AcDbEntity
  8
0
  6
Continuous
 62
     7
370
    25
100
AcDbLine
 10
28.7572227464
 20
88.6674583696
 30
0.0
 11
28.7572227464
 21
90.0800165426
 31
0.0
  0
LINE
  5
158
330
1F
100
AcDbEntity
  8
0
  6
Continuous
 62
     7
370
    25
100
AcDbLine
 10
27.6626526636
 20
88.6674583696
 30
0.0
 11
28.7572227464
 21
88.6674583696
 31
0.0
  0
LINE
  5
159
330
1F
100
AcDbEntity
  8
0
  6
Continuous
 62
     7
370
    25
100
AcDbLine
 10
27.6626526636
 20
84.1172848211
 30
0.0
 11
27.6626526636
 21
88.6674583696
 31
0.0
  0
LINE
  5
15A
330
1F
100
AcDbEntity
  8
0
  6
Continuous
 62
     7
370
    25
100
AcDbLine
 10
33.3538489582
 20
84.1172848211
 30
0.0
 11
27.6626526636
 21
84.1172848211
 31
0.0
  0
LINE
  5
15B
330
1F
100
AcDbEntity
  8
0
  6
Continuous
 62
     7
370
    25
100
AcDbLine
 10
33.3538489582
 20
80.30512558
 30
0.0
 11
33.3538489582
 21
84.1172848211
 31
0.0
  0
LINE
  5
15C
330
1F
100
AcDbEntity
  8
0
  6
Continuous
 62
     7
370
    25
100
AcDbLine
 10
29.9822782581
 20
76.9335548799
 30
0.0
 11
33.3538489582
 21
80.30512558
 31
0.0
  0
ARC
  5
15D
330
1F
100
AcDbEntity
  8
0
  6
Continuous
 62
     7
370
    25
100
AcDbCircle
 10
28.3173240439
 20
78.598509094
 30
0.0
 40
2.354600830415635
100
AcDbArc
 50
270.0
 51
315.0
  0
LINE
  5
15E
330
1F
100
AcDbEntity
  8
0
  6
Continuous
 62
     7
370
    25
100
AcDbLine
 10
23.2812692497
 20
76.2439082636
 30
0.0
 11
28.3173240439
 21
76.2439082636
 31
0.0
  0
LINE
  5
15F
330
1F
100
AcDbEntity
  8
0
  6
Continuous
 62
     7
370
    25
100
AcDbLine
 10
22.5626526636
 20
75.4324881215
 30
0.0
 11
23.2812692497
 21
76.2439082636
 31
0.0
  0
LINE
  5
160
330
1F
100
AcDbEntity
  8
0
  6
Continuous
 62
     7
370
    25
100
AcDbLine
 10
21.8440360776
 20
76.2439082636
 30
0.0
 11
22.5626526636
 21
75.4324881215
 31
0.0
  0
LINE
  5
161
330
1F
100
AcDbEntity
  8
0
  6
Continuous
 62
     7
370
    25
100
AcDbLine
 10
16.8079812834
 20
76.2439082636
 30
0.0
 11
21.8440360776
 21
76.2439082636
 31
0.0
  0
ARC
  5
162
330
1F
100
AcDbEntity
  8
0
  6
Continuous
 62
     7
370
    25
100
AcDbCircle
 10
16.8079812834
 20
78.598509094
 30
0.0
 40
2.354600830415649
100
AcDbArc
 50
225.0
 51
270.0
  0
LINE
  5
163
330
1F
100
AcDbEntity
  8
0
  6
Continuous
 62
     7
370
    25
100
AcDbLine
 10
11.7714563691
 20
80.30512558
 30
0.0
 11
15.1430270692
 21
76.9335548799
 31
0.0
  0
LINE
  5
164
330
1F
100
AcDbEntity
  8
0
  6
Continuous
 62
     7
370
    25
100
AcDbLine
 10
11.7714563691
 20
84.1172848211
 30
0.0
 11
11.7714563691
 21
80.30512558
 31
0.0
  0
LINE
  5
165
330
1F
100
AcDbEntity
  8
0
  6
Continuous
 62
     7
370
    25
100
AcDbLine
 10
17.4626526636
 20
84.1172848211
 30
0.0
 11
11.7714563691
 21
84.1172848211
 31
0.0
  0
LINE
  5
166
330
1F
100
AcDbEntity
  8
0
  6
Continuous
 62
     7
370
    25
100
AcDbLine
 10
17.4626526636
 20
88.6674583696
 30
0.0
 11
17.4626526636
 21
84.1172848211
 31
0.0
  0
LINE
  5
167
330
1F
100
AcDbEntity
  8
0
  6
Continuous
 62
     7
370
    25
100
AcDbLine
 10
16.3680825808
 20
88.6674583696
 30
0.0
 11
17.4626526636
 21
88.6674583696
 31
0.0
  0
LINE
  5
168
330
1F
100
AcDbEntity
  8
0
  6
Continuous
 62
     7
370
    25
100
AcDbLine
 10
16.3680825808
 20
90.0800165426
 30
0.0
 11
16.3680825808
 21
88.6674583696
 31
0.0
  0
LINE
  5
169
330
1F
100
AcDbEntity
  8
0
  6
Continuous
 62
     7
370
    25
100
AcDbLine
 10
2.5042791399
 20
90.0786364441
 30
0.0
 11
16.3680825808
 21
90.0800165426
 31
0.0
  0
ARC
  5
16A
330
1F
100
AcDbEntity
  8
0
  6
Continuous
 62
     7
370
    25
100
AcDbCircle
 10
2.5045280071
 20
87.5786364564
 30
0.0
 40
2.500000000000003
100
AcDbArc
 50
90.0057036168
 51
180.0502189754
  0
LINE
  5
16B
330
1F
100
AcDbEntity
  8
0
  6
Continuous
 62
     7
370
    25
100
AcDbLine
 10
0.0166664191
 20
73.7286003809
 30
0.0
 11
0.0045289674
 21
87.5764452406
 31
0.0
  0
LINE
  5
16C
330
1F
100
AcDbEntity
  8
0
  6
Continuous
 62
     7
370
    25
100
AcDbLine
 10
1.4292245921
 20
73.7286003809
 30
0.0
 11
0.0166664191
 21
73.7286003809
 31
0.0
  0
LINE
  5
16D
330
1F
100
AcDbEntity
  8
0
  6
Continuous
 62
     7
370
    25
100
AcDbLine
 10
1.4292245921
 20
72.6340302981
 30
0.0
 11
1.4292245921
 21
73.7286003809
 31
0.0
  0
LINE
  5
16E
330
1F
100
AcDbEntity
  8
0
  6
Continuous
 62
     7
370
    25
100
AcDbLine
 10
5.9793981406
 20
72.6340302981
 30
0.0
 11
1.4292245921
 21
72.6340302981
 31
0.0
  0
LINE
  5
16F
330
1F
100
AcDbEntity
  8
0
  6
Continuous
 62
     7
370
    25
100
AcDbLine
 10
5.9793981406
 20
78.3252265927
 30
0.0
 11
5.9793981406
 21
72.6340302981
 31
0.0
  0
LINE
  5
170
330
1F
100
AcDbEntity
  8
0
  6
Continuous
 62
     7
370
    25
100
AcDbLine
 10
9.7915573818
 20
78.3252265927
 30
0.0
 11
5.9793981406
 21
78.3252265927
 31
0.0
  0
LINE
  5
171
330
1F
100
AcDbEntity
  8
0
  6
Continuous
 62
     7
370
    25
100
AcDbLine
 10
13.1631280819
 20
74.9536558925
 30
0.0
 11
9.7915573818
 21
78.3252265927
 31
0.0
  0
ARC
  5
172
330
1F
100
AcDbEntity
  8
0
  6
Continuous
 62
     7
370
    25
100
AcDbCircle
 10
11.4981738677
 20
73.2887016784
 30
0.0
 40
2.35460083041565
100
AcDbArc
 50
0.0
 51
45.0
  0
LINE
  5
173
330
1F
100
AcDbEntity
  8
0
  6
Continuous
 62
     7
370
    25
100
AcDbLine
 10
13.8527746981
 20
68.2526468841
 30
0.0
 11
13.8527746981
 21
73.2887016784
 31
0.0
  0
LINE
  5
174
330
1F
100
AcDbEntity
  8
0
  6
Continuous
 62
     7
370
    25
100
AcDbLine
 10
14.6641948403
 20
67.5340302981
 30
0.0
 11
13.8527746981
 21
68.2526468841
 31
0.0
  0
LINE
  5
175
330
1F
100
AcDbEntity
  8
0
  6
Continuous
 62
     7
370
    25
100
AcDbLine
 10
13.8527746981
 20
66.8154137121
 30
0.0
 11
14.6641948403
 21
67.5340302981
 31
0.0
  0
LINE
  5
176
330
1F
100
AcDbEntity
  8
0
  6
Continuous
 62
     7
370
    25
100
AcDbLine
 10
13.8527746981
 20
61.7793589178
 30
0.0
 11
13.8527746981
 21
66.8154137121
 31
0.0
  0
ARC
  5
177
330
1F
100
AcDbEntity
  8
0
  6
Continuous
 62
     7
370
    25
100
AcDbCircle
 10
11.4981738677
 20
61.7793589178
 30
0.0
 40
2.354600830415647
100
AcDbArc
 50
315.0
 51
0.0
  0
LINE
  5
178
330
1F
100
AcDbEntity
  8
0
  6
Continuous
 62
     7
370
    25
100
AcDbLine
 10
9.7915573818
 20
56.7428340035
 30
0.0
 11
13.1631280819
 21
60.1144047036
 31
0.0
  0
LINE
  5
179
330
1F
100
AcDbEntity
  8
0
  6
Continuous
 62
     7
370
    25
100
AcDbLine
 10
5.9793981406
 20
56.7428340035
 30
0.0
 11
9.7915573818
 21
56.7428340035
 31
0.0
  0
LINE
  5
17A
330
1F
100
AcDbEntity
  8
0
  6
Continuous
 62
     7
370
    25
100
AcDbLine
 10
5.9793981406
 20
62.4340302981
 30
0.0
 11
5.9793981406
 21
56.7428340035
 31
0.0
  0
LINE
  5
17B
330
1F
100
AcDbEntity
  8
0
  6
Continuous
 62
     7
370
    25
100
AcDbLine
 10
1.4292245921
 20
62.4340302981
 30
0.0
 11
5.9793981406
 21
62.4340302981
 31
0.0
  0
LINE
  5
17C
330
1F
100
AcDbEntity
  8
0
  6
Continuous
 62
     7
370
    25
100
AcDbLine
 10
1.4292245921
 20
61.3394602153
 30
0.0
 11
1.4292245921
 21
62.4340302981
 31
0.0
  0
LINE
  5
17D
330
1F
100
AcDbEntity
  8
0
  6
Continuous
 62
     7
370
    25
100
AcDbLine
 10
0.0166664191
 20
61.3394602153
 30
0.0
 11
1.4292245921
 21
61.3394602153
 31
0.0
  0
LINE
  5
17E
330
1F
100
AcDbEntity
  8
0
  6
Continuous
 62
     7
370
    25
100
AcDbLine
 10
0.0166664191
 20
53.1676161549
 30
0.0
 11
0.0166664191
 21
61.3394602153
 31
0.0
  0
ARC
  5
17F
330
1F
100
AcDbEntity
  8
0
  6
Continuous
 62
     7
370
    25
100
AcDbCircle
 10
13.3804923773
 20
55.137769355
 30
0.0
 40
1.006337642081504
100
AcDbArc
 50
0.0
 51
133.3466289986
  0
LINE
  5
180
330
1F
100
AcDbEntity
  8
0
  6
Continuous
 62
     7
370
    25
100
AcDbLine
 10
14.3868300194
 20
55.137769355
 30
0.0
 11
14.3868300194
 21
34.9302912412
 31
0.0
  0
ARC
  5
181
330
1F
100
AcDbEntity
  8
0
  6
Continuous
 62
     7
370
    25
100
AcDbCircle
 10
13.3804923773
 20
34.9302912412
 30
0.0
 40
1.006337642081509
100
AcDbArc
 50
226.6533710014
 51
0.0
  0
LINE
  5
182
330
1F
100
AcDbEntity
  8
0
  6
Continuous
 62
     7
370
    25
100
AcDbLine
 10
12.6897317451
 20
34.1984680393
 30
0.0
 11
11.0875560542
 21
35.7107457183
 31
0.0
  0
LINE
  5
183
330
1F
100
AcDbEntity
  8
0
  6
Continuous
 62
     7
370
    25
100
AcDbLine
 10
11.0875560542
 20
35.7107457183
 30
0.0
 11
4.9373836412
 21
35.7107457183
 31
0.0
  0
ARC
  5
184
330
1F
100
AcDbEntity
  8
0
  6
Continuous
 62
     7
370
    25
100
AcDbCircle
 10
4.9373836412
 20
36.9004444413
 30
0.0
 40
1.189698722986812
100
AcDbArc
 50
180.0
 51
270.0
  0
LINE
  5
185
330
1F
100
AcDbEntity
  8
0
  6
Continuous
 62
     7
370
    25
100
AcDbLine
 10
3.7476849182
 20
36.9004444413
 30
0.0
 11
3.7476849182
 21
53.1676161549
 31
0.0
  0
ARC
  5
186
330
1F
100
AcDbEntity
  8
0
  6
Continuous
 62
     7
370
    25
100
AcDbCircle
 10
4.9373836412
 20
53.1676161549
 30
0.0
 40
1.189698722986812
100
AcDbArc
 50
90.0
 51
180.0
  0
LINE
  5
187
330
1F
100
AcDbEntity
  8
0
  6
Continuous
 62
     7
370
    25
100
AcDbLine
 10
11.0875560542
 20
54.3573148779
 30
0.0
 11
4.9373836412
 21
54.3573148779
 31
0.0
  0
LINE
  5
188
330
1F
100
AcDbEntity
  8
0
  6
Continuous
 62
     7
370
    25
100
AcDbLine
 10
12.6897317451
 20
55.8695925569
 30
0.0
 11
11.0875560542
 21
54.3573148779
 31
0.0
  0
ARC
  5
189
330
1F
100
AcDbEntity
  8
0
  6
Continuous
 62
     7
370
    25
100
AcDbCircle
 10
58.6048029343
 20
49.0617793002
 30
0.0
 40
0.4000000000000082
100
AcDbArc
 50
124.7591119435
 51
192.644397828
  0
ARC
  5
18A
330
1F
100
AcDbEntity
  8
0
  6
Continuous
 62
     7
370
    25
100
AcDbCircle
 10
40.6510501796
 20
45.0340302981
 30
0.0
 40
18.0
100
AcDbArc
 50
347.355602172
 51
12.644397828
  0
ARC
  5
18B
330
1F
100
AcDbEntity
  8
0
  6
Continuous
 62
     7
370
    25
100
AcDbCircle
 10
58.6048029343
 20
41.006281296
 30
0.0
 40
0.4000000000000082
100
AcDbArc
 50
167.355602172
 51
235.2408880565
  0
LINE
  5
18C
330
1F
100
AcDbEntity
  8
0
  6
Continuous
 62
     7
370
    25
100
AcDbLine
 10
58.3767519644
 20
40.6776587844
 30
0.0
 11
59.0268327666
 21
40.2265285295
 31
0.0
  0
ARC
  5
18D
330
1F
100
AcDbEntity
  8
0
  6
Continuous
 62
     7
370
    25
100
AcDbCircle
 10
58.7987817967
 20
39.8979060179
 30
0.0
 40
0.4000000000000043
100
AcDbArc
 50
0.0
 51
55.2408880565
  0
LINE
  5
18E
330
1F
100
AcDbEntity
  8
0
  6
Continuous
 62
     7
370
    25
100
AcDbLine
 10
59.1987817967
 20
39.8979060179
 30
0.0
 11
59.1987817967
 21
23.2103982009
 31
0.0
  0
LINE
  5
18F
330
1F
100
AcDbEntity
  8
0
  6
Continuous
 62
     7
370
    25
100
AcDbLine
 10
59.1987817967
 20
23.2103982009
 30
0.0
 11
59.9153566871
 21
22.5340302981
 31
0.0
  0
LINE
  5
190
330
1F
100
AcDbEntity
  8
0
  6
Continuous
 62
     7
370
    25
100
AcDbLine
 10
59.9153566871
 20
22.5340302981
 30
0.0
 11
59.1583093243
 21
21.8194608317
 31
0.0
  0
LINE
  5
191
330
1F
100
AcDbEntity
  8
0
  6
Continuous
 62
     7
370
    25
100
AcDbLine
 10
59.1583093243
 20
21.8194608317
 30
0.0
 11
59.1583093243
 21
19.5113183212
 31
0.0
  0
ARC
  5
192
330
1F
100
AcDbEntity
  8
0
  6
Continuous
 62
     7
370
    25
100
AcDbCircle
 10
56.7129582668
 20
19.5113183212
 30
0.0
 40
2.445351057515882
100
AcDbArc
 50
270.0
 51
0.0
  0
LINE
  5
193
330
1F
100
AcDbEntity
  8
0
  6
Continuous
 62
     7
370
    25
100
AcDbLine
 10
56.7129582668
 20
17.0659672637
 30
0.0
 11
33.4123470605
 21
17.0659672637
 31
0.0
  0
ARC
  5
194
330
1F
100
AcDbEntity
  8
0
  6
Continuous
 62
     7
370
    25
100
AcDbCircle
 10
33.4123470605
 20
19.5113183212
 30
0.0
 40
2.445351057515879
100
AcDbArc
 50
180.0
 51
270.0
  0
LINE
  5
195
330
1F
100
AcDbEntity
  8
0
  6
Continuous
 62
     7
370
    25
100
AcDbLine
 10
30.9669960029
 20
19.5113183212
 30
0.0
 11
30.9669960029
 21
21.8194608317
 31
0.0
  0
LINE
  5
196
330
1F
100
AcDbEntity
  8
0
  6
Continuous
 62
     7
370
    25
100
AcDbLine
 10
30.9669960029
 20
21.8194608317
 30
0.0
 11
30.2099486402
 21
22.5340302981
 31
0.0
  0
LINE
  5
197
330
1F
100
AcDbEntity
  8
0
  6
Continuous
 62
     7
370
    25
100
AcDbLine
 10
30.2099486402
 20
22.5340302981
 30
0.0
 11
30.9669960029
 21
23.2485997645
 31
0.0
  0
LINE
  5
198
330
1F
100
AcDbEntity
  8
0
  6
Continuous
 62
     7
370
    25
100
AcDbLine
 10
30.9669960029
 20
23.2485997645
 30
0.0
 11
30.9669960029
 21
29.8610577909
 31
0.0
  0
ARC
  5
199
330
1F
100
AcDbEntity
  8
0
  6
Continuous
 62
     7
370
    25
100
AcDbCircle
 10
40.6510501796
 20
45.0340302981
 30
0.0
 40
18.0
100
AcDbArc
 50
231.5445577242
 51
237.4522017294
  0
LINE
  5
19A
330
1F
100
AcDbEntity
  8
0
  6
Continuous
 62
     7
370
    25
100
AcDbLine
 10
29.4567452301
 20
30.9383736374
 30
0.0
 11
23.27722213
 21
30.9383736374
 31
0.0
  0
LINE
  5
19B
330
1F
100
AcDbEntity
  8
0
  6
Continuous
 62
     7
370
    25
100
AcDbLine
 10
23.27722213
 20
30.9383736374
 30
0.0
 11
22.5626526636
 21
30.1813262747
 31
0.0
  0
LINE
  5
19C
330
1F
100
AcDbEntity
  8
0
  6
Continuous
 62
     7
370
    25
100
AcDbLine
 10
22.5626526636
 20
30.1813262747
 30
0.0
 11
21.8480831972
 21
30.9383736374
 31
0.0
  0
LINE
  5
19D
330
1F
100
AcDbEntity
  8
0
  6
Continuous
 62
     7
370
    25
100
AcDbLine
 10
21.8480831972
 20
30.9383736374
 30
0.0
 11
19.5399406868
 21
30.9383736374
 31
0.0
  0
ARC
  5
19E
330
1F
100
AcDbEntity
  8
0
  6
Continuous
 62
     7
370
    25
100
AcDbCircle
 10
19.5399406868
 20
33.3837246949
 30
0.0
 40
2.445351057515886
100
AcDbArc
 50
180.0
 51
270.0
  0
LINE
  5
19F
330
1F
100
AcDbEntity
  8
0
  6
Continuous
 62
     7
370
    25
100
AcDbLine
 10
17.0945896292
 20
33.3837246949
 30
0.0
 11
17.0945896292
 21
56.6843359013
 31
0.0
  0
ARC
  5
1A0
330
1F
100
AcDbEntity
  8
0
  6
Continuous
 62
     7
370
    25
100
AcDbCircle
 10
19.5399406868
 20
56.6843359013
 30
0.0
 40
2.445351057515886
100
AcDbArc
 50
90.0
 51
180.0
  0
LINE
  5
1A1
330
1F
100
AcDbEntity
  8
0
  6
Continuous
 62
     7
370
    25
100
AcDbLine
 10
21.8480831972
 20
59.1296869588
 30
0.0
 11
19.5399406868
 21
59.1296869588
 31
0.0
  0
LINE
  5
1A2
330
1F
100
AcDbEntity
  8
0
  6
Continuous
 62
     7
370
    25
100
AcDbLine
 10
22.5626526636
 20
59.8867343215
 30
0.0
 11
21.8480831972
 21
59.1296869588
 31
0.0
  0
LINE
  5
1A3
330
1F
100
AcDbEntity
  8
0
  6
Continuous
 62
     7
370
    25
100
AcDbLine
 10
23.27722213
 20
59.1296869588
 30
0.0
 11
22.5626526636
 21
59.8867343215
 31
0.0
  0
LINE
  5
1A4
330
1F
100
AcDbEntity
  8
0
  6
Continuous
 62
     7
370
    25
100
AcDbLine
 10
29.4567452301
 20
59.1296869588
 30
0.0
 11
23.27722213
 21
59.1296869588
 31
0.0
  0
ARC
  5
1A5
330
1F
100
AcDbEntity
  8
0
  6
Continuous
 62
     7
370
    25
100
AcDbCircle
 10
40.6510501796
 20
45.0340302981
 30
0.0
 40
18.0
100
AcDbArc
 50
122.5477982706
 51
128.4554422758
  0
LINE
  5
1A6
330
1F
100
AcDbEntity
  8
0
  6
Continuous
 62
     7
370
    25
100
AcDbLine
 10
30.9669960029
 20
66.8194608317
 30
0.0
 11
30.9669960029
 21
60.2070028053
 31
0.0
  0
LINE
  5
1A7
330
1F
100
AcDbEntity
  8
0
  6
Continuous
 62
     7
370
    25
100
AcDbLine
 10
30.2099486402
 20
67.5340302981
 30
0.0
 11
30.9669960029
 21
66.8194608317
 31
0.0
  0
LINE
  5
1A8
330
1F
100
AcDbEntity
  8
0
  6
Continuous
 62
     7
370
    25
100
AcDbLine
 10
30.9669960029
 20
68.2485997645
 30
0.0
 11
30.2099486402
 21
67.5340302981
 31
0.0
  0
LINE
  5
1A9
330
1F
100
AcDbEntity
  8
0
  6
Continuous
 62
     7
370
    25
100
AcDbLine
 10
30.9669960029
 20
70.556742275
 30
0.0
 11
30.9669960029
 21
68.2485997645
 31
0.0
  0
ARC
  5
1AA
330
1F
100
AcDbEntity
  8
0
  6
Continuous
 62
     7
370
    25
100
AcDbCircle
 10
33.4123470605
 20
70.556742275
 30
0.0
 40
2.445351057515879
100
AcDbArc
 50
90.0
 51
180.0
  0
LINE
  5
1AB
330
1F
100
AcDbEntity
  8
0
  6
Continuous
 62
     7
370
    25
100
AcDbLine
 10
56.7129582668
 20
73.0020933325
 30
0.0
 11
33.4123470605
 21
73.0020933325
 31
0.0
  0
ARC
  5
1AC
330
1F
100
AcDbEntity
  8
0
  6
Continuous
 62
     7
370
    25
100
AcDbCircle
 10
56.7129582668
 20
70.556742275
 30
0.0
 40
2.445351057515879
100
AcDbArc
 50
0.0
 51
90.0
  0
LINE
  5
1AD
330
1F
100
AcDbEntity
  8
0
  6
Continuous
 62
     7
370
    25
100
AcDbLine
 10
59.1583093243
 20
68.2485997645
 30
0.0
 11
59.1583093243
 21
70.556742275
 31
0.0
  0
LINE
  5
1AE
330
1F
100
AcDbEntity
  8
0
  6
Continuous
 62
     7
370
    25
100
AcDbLine
 10
59.9153566871
 20
67.5340302981
 30
0.0
 11
59.1583093243
 21
68.2485997645
 31
0.0
  0
LINE
  5
1AF
330
1F
100
AcDbEntity
  8
0
  6
Continuous
 62
     7
370
    25
100
AcDbLine
 10
59.1987817967
 20
66.8576623953
 30
0.0
 11
59.9153566871
 21
67.5340302981
 31
0.0
  0
LINE
  5
1B0
330
1F
100
AcDbEntity
  8
0
  6
Continuous
 62
     7
370
    25
100
AcDbLine
 10
59.1987817967
 20
50.1701545783
 30
0.0
 11
59.1987817967
 21
66.8576623953
 31
0.0
  0
ARC
  5
1B1
330
1F
100
AcDbEntity
  8
0
  6
Continuous
 62
     7
370
    25
100
AcDbCircle
 10
58.7987817967
 20
50.1701545783
 30
0.0
 40
0.3999999999999986
100
AcDbArc
 50
304.7591119435
 51
0.0
  0
LINE
  5
1B2
330
1F
100
AcDbEntity
  8
0
  6
Continuous
 62
     7
370
    25
100
AcDbLine
 10
58.3767519644
 20
49.3904018118
 30
0.0
 11
59.0268327666
 21
49.8415320667
 31
0.0
  0
LINE
  5
1B3
330
1F
100
AcDbEntity
  8
0
  6
Continuous
 62
     7
370
    25
100
AcDbLine
 10
61.8079816458
 20
32.9235658528
 30
0.0
 11
61.8079816458
 21
57.1444947434
 31
0.0
  0
ARC
  5
1B4
330
1F
100
AcDbEntity
  8
0
  6
Continuous
 62
     7
370
    25
100
AcDbCircle
 10
63.3981181358
 20
57.1571241295
 30
0.0
 40
1.590186642568999
100
AcDbArc
 50
90.7854531977
 51
180.4550523258
  0
LINE
  5
1B5
330
1F
100
AcDbEntity
  8
0
  6
Continuous
 62
     7
370
    25
100
AcDbLine
 10
66.6102020009
 20
58.7914966008
 30
0.0
 11
63.3763193563
 21
58.7471613528
 31
0.0
  0
LINE
  5
1B6
330
1F
100
AcDbEntity
  8
0
  6
Continuous
 62
     7
370
    25
100
AcDbLine
 10
67.5626526636
 20
59.8867343215
 30
0.0
 11
66.6102020009
 21
58.7914966008
 31
0.0
  0
LINE
  5
1B7
330
1F
100
AcDbEntity
  8
0
  6
Continuous
 62
     7
370
    25
100
AcDbLine
 10
68.5447702673
 20
58.8180187641
 30
0.0
 11
67.5626526636
 21
59.8867343215
 31
0.0
  0
LINE
  5
1B8
330
1F
100
AcDbEntity
  8
0
  6
Continuous
 62
     7
370
    25
100
AcDbLine
 10
74.1127803885
 20
58.8943539738
 30
0.0
 11
68.5447702673
 21
58.8180187641
 31
0.0
  0
LINE
  5
1B9
330
1F
100
AcDbEntity
  8
0
  6
Continuous
 62
     7
370
    25
100
AcDbLine
 10
76.2406093727
 20
61.1881634215
 30
0.0
 11
74.1127803885
 21
58.8943539738
 31
0.0
  0
LINE
  5
1BA
330
1F
100
AcDbEntity
  8
0
  6
Continuous
 62
     7
370
    25
100
AcDbLine
 10
76.2725306292
 20
66.8154137121
 30
0.0
 11
76.2406093727
 21
61.1881634215
 31
0.0
  0
LINE
  5
1BB
330
1F
100
AcDbEntity
  8
0
  6
Continuous
 62
     7
370
    25
100
AcDbLine
 10
75.461110487
 20
67.5340302981
 30
0.0
 11
76.2725306292
 21
66.8154137121
 31
0.0
  0
LINE
  5
1BC
330
1F
100
AcDbEntity
  8
0
  6
Continuous
 62
     7
370
    25
100
AcDbLine
 10
76.2725306292
 20
68.2526468841
 30
0.0
 11
75.461110487
 21
67.5340302981
 31
0.0
  0
LINE
  5
1BD
330
1F
100
AcDbEntity
  8
0
  6
Continuous
 62
     7
370
    25
100
AcDbLine
 10
76.2725306292
 20
70.556742275
 30
0.0
 11
76.2725306292
 21
68.2526468841
 31
0.0
  0
ARC
  5
1BE
330
1F
100
AcDbEntity
  8
0
  6
Continuous
 62
     7
370
    25
100
AcDbCircle
 10
78.4123470605
 20
70.556742275
 30
0.0
 40
2.139816431278135
100
AcDbArc
 50
90.0
 51
180.0
  0
LINE
  5
1BF
330
1F
100
AcDbEntity
  8
0
  6
Continuous
 62
     7
370
    25
100
AcDbLine
 10
101.8049307559
 20
72.6965587063
 30
0.0
 11
78.4123470605
 21
72.6965587063
 31
0.0
  0
ARC
  5
1C0
330
1F
100
AcDbEntity
  8
0
  6
Continuous
 62
     7
370
    25
100
AcDbCircle
 10
101.8049307559
 20
70.556742275
 30
0.0
 40
2.139816431278135
100
AcDbArc
 50
0.0
 51
90.0
  0
LINE
  5
1C1
330
1F
100
AcDbEntity
  8
0
  6
Continuous
 62
     7
370
    25
100
AcDbLine
 10
103.9447471871
 20
70.556742275
 30
0.0
 11
103.9447471871
 21
68.2526468841
 31
0.0
  0
LINE
  5
1C2
330
1F
100
AcDbEntity
  8
0
  6
Continuous
 62
     7
370
    25
100
AcDbLine
 10
103.9447471871
 20
68.2526468841
 30
0.0
 11
104.7561673293
 21
67.5340302981
 31
0.0
  0
LINE
  5
1C3
330
1F
100
AcDbEntity
  8
0
  6
Continuous
 62
     7
370
    25
100
AcDbLine
 10
104.7561673293
 20
67.5340302981
 30
0.0
 11
103.9447471871
 21
66.8154137121
 31
0.0
  0
LINE
  5
1C4
330
1F
100
AcDbEntity
  8
0
  6
Continuous
 62
     7
370
    25
100
AcDbLine
 10
103.9447471871
 20
66.8154137121
 30
0.0
 11
103.9766684437
 21
61.1881634215
 31
0.0
  0
LINE
  5
1C5
330
1F
100
AcDbEntity
  8
0
  6
Continuous
 62
     7
370
    25
100
AcDbLine
 10
103.9766684437
 20
61.1881634215
 30
0.0
 11
106.1044974278
 21
58.8943539738
 31
0.0
  0
LINE
  5
1C6
330
1F
100
AcDbEntity
  8
0
  6
Continuous
 62
     7
370
    25
100
AcDbLine
 10
106.1044974278
 20
58.8943539738
 30
0.0
 11
111.672507549
 21
58.8180187641
 31
0.0
  0
LINE
  5
1C7
330
1F
100
AcDbEntity
  8
0
  6
Continuous
 62
     7
370
    25
100
AcDbLine
 10
111.672507549
 20
58.8180187641
 30
0.0
 11
112.6546251527
 21
59.8867343215
 31
0.0
  0
LINE
  5
1C8
330
1F
100
AcDbEntity
  8
0
  6
Continuous
 62
     7
370
    25
100
AcDbLine
 10
112.6546251527
 20
59.8867343215
 30
0.0
 11
113.6070758155
 21
58.7914966008
 31
0.0
  0
LINE
  5
1C9
330
1F
100
AcDbEntity
  8
0
  6
Continuous
 62
     7
370
    25
100
AcDbLine
 10
113.6070758155
 20
58.7914966008
 30
0.0
 11
116.84095846
 21
58.7471613528
 31
0.0
  0
ARC
  5
1CA
330
1F
100
AcDbEntity
  8
0
  6
Continuous
 62
     7
370
    25
100
AcDbCircle
 10
116.8191596805
 20
57.1571241295
 30
0.0
 40
1.590186642569006
100
AcDbArc
 50
359.5449476742
 51
89.2145468023
  0
LINE
  5
1CB
330
1F
100
AcDbEntity
  8
0
  6
Continuous
 62
     7
370
    25
100
AcDbLine
 10
118.4092961705
 20
32.9235658528
 30
0.0
 11
118.4092961705
 21
57.1444947434
 31
0.0
  0
ARC
  5
1CC
330
1F
100
AcDbEntity
  8
0
  6
Continuous
 62
     7
370
    25
100
AcDbCircle
 10
116.8191596805
 20
32.9109364667
 30
0.0
 40
1.590186642569006
100
AcDbArc
 50
270.7854531977
 51
0.4550523258
  0
LINE
  5
1CD
330
1F
100
AcDbEntity
  8
0
  6
Continuous
 62
     7
370
    25
100
AcDbLine
 10
113.6070758155
 20
31.2765639954
 30
0.0
 11
116.84095846
 21
31.3208992434
 31
0.0
  0
LINE
  5
1CE
330
1F
100
AcDbEntity
  8
0
  6
Continuous
 62
     7
370
    25
100
AcDbLine
 10
112.6546251527
 20
30.1813262747
 30
0.0
 11
113.6070758155
 21
31.2765639954
 31
0.0
  0
LINE
  5
1CF
330
1F
100
AcDbEntity
  8
0
  6
Continuous
 62
     7
370
    25
100
AcDbLine
 10
111.672507549
 20
31.250041832
 30
0.0
 11
112.6546251527
 21
30.1813262747
 31
0.0
  0
LINE
  5
1D0
330
1F
100
AcDbEntity
  8
0
  6
Continuous
 62
     7
370
    25
100
AcDbLine
 10
106.1044974278
 20
31.1737066224
 30
0.0
 11
111.672507549
 21
31.250041832
 31
0.0
  0
LINE
  5
1D1
330
1F
100
AcDbEntity
  8
0
  6
Continuous
 62
     7
370
    25
100
AcDbLine
 10
103.9766684437
 20
28.8798971747
 30
0.0
 11
106.1044974278
 21
31.1737066224
 31
0.0
  0
LINE
  5
1D2
330
1F
100
AcDbEntity
  8
0
  6
Continuous
 62
     7
370
    25
100
AcDbLine
 10
103.9447471871
 20
23.2526468841
 30
0.0
 11
103.9766684437
 21
28.8798971747
 31
0.0
  0
LINE
  5
1D3
330
1F
100
AcDbEntity
  8
0
  6
Continuous
 62
     7
370
    25
100
AcDbLine
 10
104.7561673293
 20
22.5340302981
 30
0.0
 11
103.9447471871
 21
23.2526468841
 31
0.0
  0
LINE
  5
1D4
330
1F
100
AcDbEntity
  8
0
  6
Continuous
 62
     7
370
    25
100
AcDbLine
 10
103.9447471871
 20
21.8154137121
 30
0.0
 11
104.7561673293
 21
22.5340302981
 31
0.0
  0
LINE
  5
1D5
330
1F
100
AcDbEntity
  8
0
  6
Continuous
 62
     7
370
    25
100
AcDbLine
 10
103.9447471871
 20
19.5113183212
 30
0.0
 11
103.9447471871
 21
21.8154137121
 31
0.0
  0
ARC
  5
1D6
330
1F
100
AcDbEntity
  8
0
  6
Continuous
 62
     7
370
    25
100
AcDbCircle
 10
101.8049307559
 20
19.5113183212
 30
0.0
 40
2.139816431278135
100
AcDbArc
 50
270.0
 51
0.0
  0
LINE
  5
1D7
330
1F
100
AcDbEntity
  8
0
  6
Continuous
 62
     7
370
    25
100
AcDbLine
 10
101.8049307559
 20
17.3715018899
 30
0.0
 11
78.4123470605
 21
17.3715018899
 31
0.0
  0
ARC
  5
1D8
330
1F
100
AcDbEntity
  8
0
  6
Continuous
 62
     7
370
    25
100
AcDbCircle
 10
78.4123470605
 20
19.5113183212
 30
0.0
 40
2.139816431278135
100
AcDbArc
 50
180.0
 51
270.0
  0
LINE
  5
1D9
330
1F
100
AcDbEntity
  8
0
  6
Continuous
 62
     7
370
    25
100
AcDbLine
 10
76.2725306292
 20
19.5113183212
 30
0.0
 11
76.2725306292
 21
21.8154137121
 31
0.0
  0
LINE
  5
1DA
330
1F
100
AcDbEntity
  8
0
  6
Continuous
 62
     7
370
    25
100
AcDbLine
 10
76.2725306292
 20
21.8154137121
 30
0.0
 11
75.461110487
 21
22.5340302981
 31
0.0
  0
LINE
  5
1DB
330
1F
100
AcDbEntity
  8
0
  6
Continuous
 62
     7
370
    25
100
AcDbLine
 10
75.461110487
 20
22.5340302981
 30
0.0
 11
76.2725306292
 21
23.2526468841
 31
0.0
  0
LINE
  5
1DC
330
1F
100
AcDbEntity
  8
0
  6
Continuous
 62
     7
370
    25
100
AcDbLine
 10
76.2725306292
 20
23.2526468841
 30
0.0
 11
76.2406093727
 21
28.8798971747
 31
0.0
  0
LINE
  5
1DD
330
1F
100
AcDbEntity
  8
0
  6
Continuous
 62
     7
370
    25
100
AcDbLine
 10
76.2406093727
 20
28.8798971747
 30
0.0
 11
74.1127803885
 21
31.1737066224
 31
0.0
  0
LINE
  5
1DE
330
1F
100
AcDbEntity
  8
0
  6
Continuous
 62
     7
370
    25
100
AcDbLine
 10
74.1127803885
 20
31.1737066224
 30
0.0
 11
68.5447702673
 21
31.250041832
 31
0.0
  0
LINE
  5
1DF
330
1F
100
AcDbEntity
  8
0
  6
Continuous
 62
     7
370
    25
100
AcDbLine
 10
68.5447702673
 20
31.250041832
 30
0.0
 11
67.5626526636
 21
30.1813262747
 31
0.0
  0
LINE
  5
1E0
330
1F
100
AcDbEntity
  8
0
  6
Continuous
 62
     7
370
    25
100
AcDbLine
 10
67.5626526636
 20
30.1813262747
 30
0.0
 11
66.6102020009
 21
31.2765639954
 31
0.0
  0
LINE
  5
1E1
330
1F
100
AcDbEntity
  8
0
  6
Continuous
 62
     7
370
    25
100
AcDbLine
 10
66.6102020009
 20
31.2765639954
 30
0.0
 11
63.3763193563
 21
31.3208992434
 31
0.0
  0
ARC
  5
1E2
330
1F
100
AcDbEntity
  8
0
  6
Continuous
 62
     7
370
    25
100
AcDbCircle
 10
63.3981181358
 20
32.9109364667
 30
0.0
 40
1.590186642568999
100
AcDbArc
 50
179.5449476742
 51
269.2145468023
  0
LINE
  5
1E3
330
1F
100
AcDbEntity
  8
0
  6
Continuous
 62
     7
370
    25
100
AcDbLine
 10
165.8304477969
 20
55.137769355
 30
0.0
 11
165.8304477969
 21
34.9302912412
 31
0.0
  0
ARC
  5
1E4
330
1F
100
AcDbEntity
  8
0
  6
Continuous
 62
     7
370
    25
100
AcDbCircle
 10
166.836785439
 20
55.137769355
 30
0.0
 40
1.00633764208149
100
AcDbArc
 50
46.6533710014
 51
180.0
  0
LINE
  5
1E5
330
1F
100
AcDbEntity
  8
0
  6
Continuous
 62
     7
370
    25
100
AcDbLine
 10
167.5275460712
 20
55.8695925569
 30
0.0
 11
169.1297217621
 21
54.3573148779
 31
0.0
  0
LINE
  5
1E6
330
1F
100
AcDbEntity
  8
0
  6
Continuous
 62
     7
370
    25
100
AcDbLine
 10
169.1297217621
 20
54.3573148779
 30
0.0
 11
175.2798941751
 21
54.3573148779
 31
0.0
  0
ARC
  5
1E7
330
1F
100
AcDbEntity
  8
0
  6
Continuous
 62
     7
370
    25
100
AcDbCircle
 10
175.2798941751
 20
53.1676161549
 30
0.0
 40
1.189698722986833
100
AcDbArc
 50
360.0
 51
90.0
  0
LINE
  5
1E8
330
1F
100
AcDbEntity
  8
0
  6
Continuous
 62
     7
370
    25
100
AcDbLine
 10
176.4695928981
 20
36.9004444413
 30
0.0
 11
176.4695928981
 21
53.1676161549
 31
0.0
  0
ARC
  5
1E9
330
1F
100
AcDbEntity
  8
0
  6
Continuous
 62
     7
370
    25
100
AcDbCircle
 10
175.2798941751
 20
36.9004444413
 30
0.0
 40
1.189698722986833
100
AcDbArc
 50
270.0
 51
0.0
  0
LINE
  5
1EA
330
1F
100
AcDbEntity
  8
0
  6
Continuous
 62
     7
370
    25
100
AcDbLine
 10
169.1297217621
 20
35.7107457183
 30
0.0
 11
175.2798941751
 21
35.7107457183
 31
0.0
  0
LINE
  5
1EB
330
1F
100
AcDbEntity
  8
0
  6
Continuous
 62
     7
370
    25
100
AcDbLine
 10
167.5275460712
 20
34.1984680393
 30
0.0
 11
169.1297217621
 21
35.7107457183
 31
0.0
  0
ARC
  5
1EC
330
1F
100
AcDbEntity
  8
0
  6
Continuous
 62
     7
370
    25
100
AcDbCircle
 10
166.836785439
 20
34.9302912412
 30
0.0
 40
1.006337642081491
100
AcDbArc
 50
180.0
 51
313.3466289986
  0
ARC
  5
1ED
330
1F
100
AcDbEntity
  8
0
  6
Continuous
 62
     7
370
    25
100
AcDbCircle
 10
160.6773371296
 20
56.6843359013
 30
0.0
 40
2.445351057515893
100
AcDbArc
 50
0.0
 51
90.0
  0
LINE
  5
1EE
330
1F
100
AcDbEntity
  8
0
  6
Continuous
 62
     7
370
    25
100
AcDbLine
 10
163.1226881871
 20
33.3837246949
 30
0.0
 11
163.1226881871
 21
56.6843359013
 31
0.0
  0
ARC
  5
1EF
330
1F
100
AcDbEntity
  8
0
  6
Continuous
 62
     7
370
    25
100
AcDbCircle
 10
160.6773371296
 20
33.3837246949
 30
0.0
 40
2.445351057515893
100
AcDbArc
 50
270.0
 51
0.0
  0
LINE
  5
1F0
330
1F
100
AcDbEntity
  8
0
  6
Continuous
 62
     7
370
    25
100
AcDbLine
 10
158.3691946191
 20
30.9383736374
 30
0.0
 11
160.6773371296
 21
30.9383736374
 31
0.0
  0
LINE
  5
1F1
330
1F
100
AcDbEntity
  8
0
  6
Continuous
 62
     7
370
    25
100
AcDbLine
 10
157.6546251527
 20
30.1813262747
 30
0.0
 11
158.3691946191
 21
30.9383736374
 31
0.0
  0
LINE
  5
1F2
330
1F
100
AcDbEntity
  8
0
  6
Continuous
 62
     7
370
    25
100
AcDbLine
 10
156.9400556863
 20
30.9383736374
 30
0.0
 11
157.6546251527
 21
30.1813262747
 31
0.0
  0
LINE
  5
1F3
330
1F
100
AcDbEntity
  8
0
  6
Continuous
 62
     7
370
    25
100
AcDbLine
 10
150.7605325863
 20
30.9383736374
 30
0.0
 11
156.9400556863
 21
30.9383736374
 31
0.0
  0
ARC
  5
1F4
330
1F
100
AcDbEntity
  8
0
  6
Continuous
 62
     7
370
    25
100
AcDbCircle
 10
139.5662276367
 20
45.0340302981
 30
0.0
 40
18.0
100
AcDbArc
 50
302.5477982706
 51
308.4554422758
  0
LINE
  5
1F5
330
1F
100
AcDbEntity
  8
0
  6
Continuous
 62
     7
370
    25
100
AcDbLine
 10
149.2502818134
 20
23.2485997645
 30
0.0
 11
149.2502818134
 21
29.8610577909
 31
0.0
  0
LINE
  5
1F6
330
1F
100
AcDbEntity
  8
0
  6
Continuous
 62
     7
370
    25
100
AcDbLine
 10
150.0073291761
 20
22.5340302981
 30
0.0
 11
149.2502818134
 21
23.2485997645
 31
0.0
  0
LINE
  5
1F7
330
1F
100
AcDbEntity
  8
0
  6
Continuous
 62
     7
370
    25
100
AcDbLine
 10
149.2502818134
 20
21.8194608317
 30
0.0
 11
150.0073291761
 21
22.5340302981
 31
0.0
  0
LINE
  5
1F8
330
1F
100
AcDbEntity
  8
0
  6
Continuous
 62
     7
370
    25
100
AcDbLine
 10
149.2502818134
 20
19.5113183212
 30
0.0
 11
149.2502818134
 21
21.8194608317
 31
0.0
  0
ARC
  5
1F9
330
1F
100
AcDbEntity
  8
0
  6
Continuous
 62
     7
370
    25
100
AcDbCircle
 10
146.8049307559
 20
19.5113183212
 30
0.0
 40
2.445351057515879
100
AcDbArc
 50
270.0
 51
0.0
  0
LINE
  5
1FA
330
1F
100
AcDbEntity
  8
0
  6
Continuous
 62
     7
370
    25
100
AcDbLine
 10
123.5043195495
 20
17.0659672637
 30
0.0
 11
146.8049307559
 21
17.0659672637
 31
0.0
  0
ARC
  5
1FB
330
1F
100
AcDbEntity
  8
0
  6
Continuous
 62
     7
370
    25
100
AcDbCircle
 10
123.5043195495
 20
19.5113183212
 30
0.0
 40
2.445351057515882
100
AcDbArc
 50
180.0
 51
270.0
  0
LINE
  5
1FC
330
1F
100
AcDbEntity
  8
0
  6
Continuous
 62
     7
370
    25
100
AcDbLine
 10
121.058968492
 20
21.8194608317
 30
0.0
 11
121.058968492
 21
19.5113183212
 31
0.0
  0
LINE
  5
1FD
330
1F
100
AcDbEntity
  8
0
  6
Continuous
 62
     7
370
    25
100
AcDbLine
 10
120.3019211293
 20
22.5340302981
 30
0.0
 11
121.058968492
 21
21.8194608317
 31
0.0
  0
LINE
  5
1FE
330
1F
100
AcDbEntity
  8
0
  6
Continuous
 62
     7
370
    25
100
AcDbLine
 10
121.0184960197
 20
23.2103982009
 30
0.0
 11
120.3019211293
 21
22.5340302981
 31
0.0
  0
LINE
  5
1FF
330
1F
100
AcDbEntity
  8
0
  6
Continuous
 62
     7
370
    25
100
AcDbLine
 10
121.0184960197
 20
39.8979060179
 30
0.0
 11
121.0184960197
 21
23.2103982009
 31
0.0
  0
ARC
  5
200
330
1F
100
AcDbEntity
  8
0
  6
Continuous
 62
     7
370
    25
100
AcDbCircle
 10
121.4184960197
 20
39.8979060179
 30
0.0
 40
0.4000000000000002
100
AcDbArc
 50
124.7591119435
 51
180.0
  0
LINE
  5
201
330
1F
100
AcDbEntity
  8
0
  6
Continuous
 62
     7
370
    25
100
AcDbLine
 10
121.8405258519
 20
40.6776587844
 30
0.0
 11
121.1904450498
 21
40.2265285295
 31
0.0
  0
ARC
  5
202
330
1F
100
AcDbEntity
  8
0
  6
Continuous
 62
     7
370
    25
100
AcDbCircle
 10
121.612474882
 20
41.006281296
 30
0.0
 40
0.4000000000000013
100
AcDbArc
 50
304.7591119435
 51
12.644397828
  0
ARC
  5
203
330
1F
100
AcDbEntity
  8
0
  6
Continuous
 62
     7
370
    25
100
AcDbCircle
 10
139.5662276367
 20
45.0340302981
 30
0.0
 40
18.00000000000001
100
AcDbArc
 50
167.355602172
 51
192.644397828
  0
ARC
  5
204
330
1F
100
AcDbEntity
  8
0
  6
Continuous
 62
     7
370
    25
100
AcDbCircle
 10
121.612474882
 20
49.0617793002
 30
0.0
 40
0.4000000000000013
100
AcDbArc
 50
347.355602172
 51
55.2408880565
  0
LINE
  5
205
330
1F
100
AcDbEntity
  8
0
  6
Continuous
 62
     7
370
    25
100
AcDbLine
 10
121.8405258519
 20
49.3904018118
 30
0.0
 11
121.1904450498
 21
49.8415320667
 31
0.0
  0
ARC
  5
206
330
1F
100
AcDbEntity
  8
0
  6
Continuous
 62
     7
370
    25
100
AcDbCircle
 10
121.4184960197
 20
50.1701545783
 30
0.0
 40
0.3999999999999944
100
AcDbArc
 50
180.0
 51
235.2408880565
  0
LINE
  5
207
330
1F
100
AcDbEntity
  8
0
  6
Continuous
 62
     7
370
    25
100
AcDbLine
 10
121.0184960197
 20
50.1701545783
 30
0.0
 11
121.0184960197
 21
66.8576623953
 31
0.0
  0
LINE
  5
208
330
1F
100
AcDbEntity
  8
0
  6
Continuous
 62
     7
370
    25
100
AcDbLine
 10
121.0184960197
 20
66.8576623953
 30
0.0
 11
120.3019211293
 21
67.5340302981
 31
0.0
  0
LINE
  5
209
330
1F
100
AcDbEntity
  8
0
  6
Continuous
 62
     7
370
    25
100
AcDbLine
 10
120.3019211293
 20
67.5340302981
 30
0.0
 11
121.058968492
 21
68.2485997645
 31
0.0
  0
LINE
  5
20A
330
1F
100
AcDbEntity
  8
0
  6
Continuous
 62
     7
370
    25
100
AcDbLine
 10
121.058968492
 20
68.2485997645
 30
0.0
 11
121.058968492
 21
70.556742275
 31
0.0
  0
ARC
  5
20B
330
1F
100
AcDbEntity
  8
0
  6
Continuous
 62
     7
370
    25
100
AcDbCircle
 10
123.5043195495
 20
70.556742275
 30
0.0
 40
2.445351057515879
100
AcDbArc
 50
90.0
 51
180.0
  0
LINE
  5
20C
330
1F
100
AcDbEntity
  8
0
  6
Continuous
 62
     7
370
    25
100
AcDbLine
 10
123.5043195495
 20
73.0020933325
 30
0.0
 11
146.8049307559
 21
73.0020933325
 31
0.0
  0
ARC
  5
20D
330
1F
100
AcDbEntity
  8
0
  6
Continuous
 62
     7
370
    25
100
AcDbCircle
 10
146.8049307559
 20
70.556742275
 30
0.0
 40
2.445351057515879
100
AcDbArc
 50
0.0
 51
90.0
  0
LINE
  5
20E
330
1F
100
AcDbEntity
  8
0
  6
Continuous
 62
     7
370
    25
100
AcDbLine
 10
149.2502818134
 20
70.556742275
 30
0.0
 11
149.2502818134
 21
68.2485997645
 31
0.0
  0
LINE
  5
20F
330
1F
100
AcDbEntity
  8
0
  6
Continuous
 62
     7
370
    25
100
AcDbLine
 10
149.2502818134
 20
68.2485997645
 30
0.0
 11
150.0073291761
 21
67.5340302981
 31
0.0
  0
LINE
  5
210
330
1F
100
AcDbEntity
  8
0
  6
Continuous
 62
     7
370
    25
100
AcDbLine
 10
150.0073291761
 20
67.5340302981
 30
0.0
 11
149.2502818134
 21
66.8194608317
 31
0.0
  0
LINE
  5
211
330
1F
100
AcDbEntity
  8
0
  6
Continuous
 62
     7
370
    25
100
AcDbLine
 10
149.2502818134
 20
66.8194608317
 30
0.0
 11
149.2502818134
 21
60.2070028053
 31
0.0
  0
ARC
  5
212
330
1F
100
AcDbEntity
  8
0
  6
Continuous
 62
     7
370
    25
100
AcDbCircle
 10
139.5662276367
 20
45.0340302981
 30
0.0
 40
18.0
100
AcDbArc
 50
51.5445577242
 51
57.4522017294
  0
LINE
  5
213
330
1F
100
AcDbEntity
  8
0
  6
Continuous
 62
     7
370
    25
100
AcDbLine
 10
150.7605325863
 20
59.1296869588
 30
0.0
 11
156.9400556863
 21
59.1296869588
 31
0.0
  0
LINE
  5
214
330
1F
100
AcDbEntity
  8
0
  6
Continuous
 62
     7
370
    25
100
AcDbLine
 10
156.9400556863
 20
59.1296869588
 30
0.0
 11
157.6546251527
 21
59.8867343215
 31
0.0
  0
LINE
  5
215
330
1F
100
AcDbEntity
  8
0
  6
Continuous
 62
     7
370
    25
100
AcDbLine
 10
157.6546251527
 20
59.8867343215
 30
0.0
 11
158.3691946191
 21
59.1296869588
 31
0.0
  0
LINE
  5
216
330
1F
100
AcDbEntity
  8
0
  6
Continuous
 62
     7
370
    25
100
AcDbLine
 10
158.3691946191
 20
59.1296869588
 30
0.0
 11
160.6773371296
 21
59.1296869588
 31
0.0
  0
LINE
  5
217
330
1F
100
AcDbEntity
  8
0
  6
Continuous
 62
     7
370
    25
100
AcDbLine
 10
63.6139428785
 20
20.375861854
 30
0.0
 11
62.5547418865
 21
19.7969552538
 31
0.0
  0
ARC
  5
218
330
1F
100
AcDbEntity
  8
0
  6
Continuous
 62
     7
370
    25
100
AcDbCircle
 10
67.5626526636
 20
22.5340302981
 30
0.0
 40
4.500000000000006
100
AcDbArc
 50
151.3411772335
 51
208.6588227665
  0
LINE
  5
219
330
1F
100
AcDbEntity
  8
0
  6
Continuous
 62
     7
370
    25
100
AcDbLine
 10
62.5547418865
 20
25.2711053424
 30
0.0
 11
63.6139428785
 21
24.6921987421
 31
0.0
  0
LINE
  5
21A
330
1F
100
AcDbEntity
  8
0
  6
Continuous
 62
     7
370
    25
100
AcDbLine
 10
62.116313677
 20
24.8326771328
 30
0.0
 11
62.5547418865
 21
25.2711053424
 31
0.0
  0
ARC
  5
21B
330
1F
100
AcDbEntity
  8
0
  6
Continuous
 62
     7
370
    25
100
AcDbCircle
 10
61.9041816426
 20
25.0448091672
 30
0.0
 40
0.2999999999999919
100
AcDbArc
 50
180.0
 51
315.0
  0
LINE
  5
21C
330
1F
100
AcDbEntity
  8
0
  6
Continuous
 62
     7
370
    25
100
AcDbLine
 10
61.6041816426
 20
27.3574948878
 30
0.0
 11
61.6041816426
 21
25.0448091672
 31
0.0
  0
LINE
  5
21D
330
1F
100
AcDbEntity
  8
0
  6
Continuous
 62
     7
370
    25
100
AcDbLine
 10
62.739188074
 20
28.4925013191
 30
0.0
 11
61.6041816426
 21
27.3574948878
 31
0.0
  0
LINE
  5
21E
330
1F
100
AcDbEntity
  8
0
  6
Continuous
 62
     7
370
    25
100
AcDbLine
 10
65.0518737945
 20
28.4925013191
 30
0.0
 11
62.739188074
 21
28.4925013191
 31
0.0
  0
ARC
  5
21F
330
1F
100
AcDbEntity
  8
0
  6
Continuous
 62
     7
370
    25
100
AcDbCircle
 10
65.0518737945
 20
28.1925013191
 30
0.0
 40
0.3000000000000145
100
AcDbArc
 50
315.0
 51
90.0
  0
LINE
  5
220
330
1F
100
AcDbEntity
  8
0
  6
Continuous
 62
     7
370
    25
100
AcDbLine
 10
64.8255776194
 20
27.5419410753
 30
0.0
 11
65.2640058289
 21
27.9803692848
 31
0.0
  0
LINE
  5
221
330
1F
100
AcDbEntity
  8
0
  6
Continuous
 62
     7
370
    25
100
AcDbLine
 10
65.4044842196
 20
26.4827400832
 30
0.0
 11
64.8255776194
 21
27.5419410753
 31
0.0
  0
ARC
  5
222
330
1F
100
AcDbEntity
  8
0
  6
Continuous
 62
     7
370
    25
100
AcDbCircle
 10
67.5626526636
 20
22.5340302981
 30
0.0
 40
4.499999999999999
100
AcDbArc
 50
61.3411772335
 51
118.6588227665
  0
LINE
  5
223
330
1F
100
AcDbEntity
  8
0
  6
Continuous
 62
     7
370
    25
100
AcDbLine
 10
70.2997277079
 20
27.5419410753
 30
0.0
 11
69.7208211077
 21
26.4827400832
 31
0.0
  0
LINE
  5
224
330
1F
100
AcDbEntity
  8
0
  6
Continuous
 62
     7
370
    25
100
AcDbLine
 10
69.8612994984
 20
27.9803692848
 30
0.0
 11
70.2997277079
 21
27.5419410753
 31
0.0
  0
ARC
  5
225
330
1F
100
AcDbEntity
  8
0
  6
Continuous
 62
     7
370
    25
100
AcDbCircle
 10
70.0734315328
 20
28.1925013191
 30
0.0
 40
0.2999999999999868
100
AcDbArc
 50
90.0
 51
225.0
  0
LINE
  5
226
330
1F
100
AcDbEntity
  8
0
  6
Continuous
 62
     7
370
    25
100
AcDbLine
 10
72.3861172533
 20
28.4925013191
 30
0.0
 11
70.0734315328
 21
28.4925013191
 31
0.0
  0
LINE
  5
227
330
1F
100
AcDbEntity
  8
0
  6
Continuous
 62
     7
370
    25
100
AcDbLine
 10
73.5211236847
 20
27.3574948878
 30
0.0
 11
72.3861172533
 21
28.4925013191
 31
0.0
  0
LINE
  5
228
330
1F
100
AcDbEntity
  8
0
  6
Continuous
 62
     7
370
    25
100
AcDbLine
 10
73.5211236847
 20
25.0448091672
 30
0.0
 11
73.5211236847
 21
27.3574948878
 31
0.0
  0
ARC
  5
229
330
1F
100
AcDbEntity
  8
0
  6
Continuous
 62
     7
370
    25
100
AcDbCircle
 10
73.2211236847
 20
25.0448091672
 30
0.0
 40
0.3000000000000095
100
AcDbArc
 50
225.0
 51
0.0
  0
LINE
  5
22A
330
1F
100
AcDbEntity
  8
0
  6
Continuous
 62
     7
370
    25
100
AcDbLine
 10
72.5705634408
 20
25.2711053424
 30
0.0
 11
73.0089916503
 21
24.8326771328
 31
0.0
  0
LINE
  5
22B
330
1F
100
AcDbEntity
  8
0
  6
Continuous
 62
     7
370
    25
100
AcDbLine
 10
71.5113624488
 20
24.6921987421
 30
0.0
 11
72.5705634408
 21
25.2711053424
 31
0.0
  0
ARC
  5
22C
330
1F
100
AcDbEntity
  8
0
  6
Continuous
 62
     7
370
    25
100
AcDbCircle
 10
67.5626526636
 20
22.5340302981
 30
0.0
 40
4.500000000000015
100
AcDbArc
 50
331.3411772335
 51
28.6588227665
  0
LINE
  5
22D
330
1F
100
AcDbEntity
  8
0
  6
Continuous
 62
     7
370
    25
100
AcDbLine
 10
72.5705634408
 20
19.7969552538
 30
0.0
 11
71.5113624488
 21
20.375861854
 31
0.0
  0
LINE
  5
22E
330
1F
100
AcDbEntity
  8
0
  6
Continuous
 62
     7
370
    25
100
AcDbLine
 10
73.0089916503
 20
20.2353834633
 30
0.0
 11
72.5705634408
 21
19.7969552538
 31
0.0
  0
ARC
  5
22F
330
1F
100
AcDbEntity
  8
0
  6
Continuous
 62
     7
370
    25
100
AcDbCircle
 10
73.2211236847
 20
20.023251429
 30
0.0
 40
0.2999999999999919
100
AcDbArc
 50
0.0
 51
135.0
  0
LINE
  5
230
330
1F
100
AcDbEntity
  8
0
  6
Continuous
 62
     7
370
    25
100
AcDbLine
 10
73.5211236847
 20
17.7105657084
 30
0.0
 11
73.5211236847
 21
20.023251429
 31
0.0
  0
LINE
  5
231
330
1F
100
AcDbEntity
  8
0
  6
Continuous
 62
     7
370
    25
100
AcDbLine
 10
72.3861172533
 20
16.5755592771
 30
0.0
 11
73.5211236847
 21
17.7105657084
 31
0.0
  0
LINE
  5
232
330
1F
100
AcDbEntity
  8
0
  6
Continuous
 62
     7
370
    25
100
AcDbLine
 10
70.0734315328
 20
16.5755592771
 30
0.0
 11
72.3861172533
 21
16.5755592771
 31
0.0
  0
ARC
  5
233
330
1F
100
AcDbEntity
  8
0
  6
Continuous
 62
     7
370
    25
100
AcDbCircle
 10
70.0734315328
 20
16.8755592771
 30
0.0
 40
0.3000000000000044
100
AcDbArc
 50
135.0
 51
270.0
  0
LINE
  5
234
330
1F
100
AcDbEntity
  8
0
  6
Continuous
 62
     7
370
    25
100
AcDbLine
 10
70.2997277079
 20
17.5261195209
 30
0.0
 11
69.8612994984
 21
17.0876913114
 31
0.0
  0
LINE
  5
235
330
1F
100
AcDbEntity
  8
0
  6
Continuous
 62
     7
370
    25
100
AcDbLine
 10
69.7208211077
 20
18.585320513
 30
0.0
 11
70.2997277079
 21
17.5261195209
 31
0.0
  0
ARC
  5
236
330
1F
100
AcDbEntity
  8
0
  6
Continuous
 62
     7
370
    25
100
AcDbCircle
 10
67.5626526636
 20
22.5340302981
 30
0.0
 40
4.500000000000014
100
AcDbArc
 50
241.3411772335
 51
298.6588227665
  0
LINE
  5
237
330
1F
100
AcDbEntity
  8
0
  6
Continuous
 62
     7
370
    25
100
AcDbLine
 10
64.8255776194
 20
17.5261195209
 30
0.0
 11
65.4044842196
 21
18.585320513
 31
0.0
  0
LINE
  5
238
330
1F
100
AcDbEntity
  8
0
  6
Continuous
 62
     7
370
    25
100
AcDbLine
 10
65.2640058289
 20
17.0876913114
 30
0.0
 11
64.8255776194
 21
17.5261195209
 31
0.0
  0
ARC
  5
239
330
1F
100
AcDbEntity
  8
0
  6
Continuous
 62
     7
370
    25
100
AcDbCircle
 10
65.0518737945
 20
16.8755592771
 30
0.0
 40
0.2999999999999944
100
AcDbArc
 50
270.0
 51
45.0
  0
LINE
  5
23A
330
1F
100
AcDbEntity
  8
0
  6
Continuous
 62
     7
370
    25
100
AcDbLine
 10
62.739188074
 20
16.5755592771
 30
0.0
 11
65.0518737945
 21
16.5755592771
 31
0.0
  0
LINE
  5
23B
330
1F
100
AcDbEntity
  8
0
  6
Continuous
 62
     7
370
    25
100
AcDbLine
 10
61.6041816426
 20
17.7105657084
 30
0.0
 11
62.739188074
 21
16.5755592771
 31
0.0
  0
LINE
  5
23C
330
1F
100
AcDbEntity
  8
0
  6
Continuous
 62
     7
370
    25
100
AcDbLine
 10
61.6041816426
 20
20.023251429
 30
0.0
 11
61.6041816426
 21
17.7105657084
 31
0.0
  0
ARC
  5
23D
330
1F
100
AcDbEntity
  8
0
  6
Continuous
 62
     7
370
    25
100
AcDbCircle
 10
61.9041816426
 20
20.023251429
 30
0.0
 40
0.3000000000000019
100
AcDbArc
 50
45.0
 51
180.0
  0
LINE
  5
23E
330
1F
100
AcDbEntity
  8
0
  6
Continuous
 62
     7
370
    25
100
AcDbLine
 10
62.5547418865
 20
19.7969552538
 30
0.0
 11
62.116313677
 21
20.2353834633
 31
0.0
  0
LINE
  5
23F
330
1F
100
AcDbEntity
  8
0
  6
Continuous
 62
     7
370
    25
100
AcDbLine
 10
36.9290668068
 20
3.7190625527
 30
0.0
 11
53.1962385205
 21
3.7190625527
 31
0.0
  0
ARC
  5
240
330
1F
100
AcDbEntity
  8
0
  6
Continuous
 62
     7
370
    25
100
AcDbCircle
 10
36.9290668068
 20
4.9087612757
 30
0.0
 40
1.189698722986819
100
AcDbArc
 50
180.0
 51
270.0
  0
LINE
  5
241
330
1F
100
AcDbEntity
  8
0
  6
Continuous
 62
     7
370
    25
100
AcDbLine
 10
35.7393680838
 20
11.0589336886
 30
0.0
 11
35.7393680838
 21
4.9087612757
 31
0.0
  0
LINE
  5
242
330
1F
100
AcDbEntity
  8
0
  6
Continuous
 62
     7
370
    25
100
AcDbLine
 10
34.2270904049
 20
12.6611093796
 30
0.0
 11
35.7393680838
 21
11.0589336886
 31
0.0
  0
ARC
  5
243
330
1F
100
AcDbEntity
  8
0
  6
Continuous
 62
     7
370
    25
100
AcDbCircle
 10
34.9589136068
 20
13.3518700118
 30
0.0
 40
1.006337642081415
100
AcDbArc
 50
90.0
 51
223.3466289986
  0
LINE
  5
244
330
1F
100
AcDbEntity
  8
0
  6
Continuous
 62
     7
370
    25
100
AcDbLine
 10
55.1663917205
 20
14.3582076539
 30
0.0
 11
34.9589136068
 21
14.3582076539
 31
0.0
  0
ARC
  5
245
330
1F
100
AcDbEntity
  8
0
  6
Continuous
 62
     7
370
    25
100
AcDbCircle
 10
55.1663917205
 20
13.3518700118
 30
0.0
 40
1.006337642081508
100
AcDbArc
 50
316.6533710014
 51
90.0
  0
LINE
  5
246
330
1F
100
AcDbEntity
  8
0
  6
Continuous
 62
     7
370
    25
100
AcDbLine
 10
54.3859372435
 20
11.0589336886
 30
0.0
 11
55.8982149224
 21
12.6611093796
 31
0.0
  0
LINE
  5
247
330
1F
100
AcDbEntity
  8
0
  6
Continuous
 62
     7
370
    25
100
AcDbLine
 10
54.3859372435
 20
4.9087612757
 30
0.0
 11
54.3859372435
 21
11.0589336886
 31
0.0
  0
ARC
  5
248
330
1F
100
AcDbEntity
  8
0
  6
Continuous
 62
     7
370
    25
100
AcDbCircle
 10
53.1962385205
 20
4.9087612757
 30
0.0
 40
1.189698722986819
100
AcDbArc
 50
270.0
 51
0.0
  0
LINE
  5
249
330
1F
100
AcDbEntity
  8
0
  6
Continuous
 62
     7
370
    25
100
AcDbLine
 10
4.3611810259
 20
9.1497154982
 30
0.0
 11
3.8754241352
 21
9.6354723889
 31
0.0
  0
ARC
  5
24A
330
1F
100
AcDbEntity
  8
0
  6
Continuous
 62
     7
370
    25
100
AcDbCircle
 10
6.0626526636
 20
6.0340302981
 30
0.0
 40
3.549999999999998
100
AcDbArc
 50
61.361103524
 51
118.638896476
  0
LINE
  5
24B
330
1F
100
AcDbEntity
  8
0
  6
Continuous
 62
     7
370
    25
100
AcDbLine
 10
8.2498811921
 20
9.6354723889
 30
0.0
 11
7.7641243014
 21
9.1497154982
 31
0.0
  0
ARC
  5
24C
330
1F
100
AcDbEntity
  8
0
  6
Continuous
 62
     7
370
    25
100
AcDbCircle
 10
8.9569879732
 20
8.9283656077
 30
0.0
 40
1.000000000000002
100
AcDbArc
 50
315.0
 51
135.0
  0
LINE
  5
24D
330
1F
100
AcDbEntity
  8
0
  6
Continuous
 62
     7
370
    25
100
AcDbLine
 10
9.1783378637
 20
7.7355019358
 30
0.0
 11
9.6640947544
 21
8.2212588265
 31
0.0
  0
ARC
  5
24E
330
1F
100
AcDbEntity
  8
0
  6
Continuous
 62
     7
370
    25
100
AcDbCircle
 10
6.0626526636
 20
6.0340302981
 30
0.0
 40
3.549999999999999
100
AcDbArc
 50
331.361103524
 51
28.638896476
  0
LINE
  5
24F
330
1F
100
AcDbEntity
  8
0
  6
Continuous
 62
     7
370
    25
100
AcDbLine
 10
9.6640947544
 20
3.8468017697
 30
0.0
 11
9.1783378637
 21
4.3325586604
 31
0.0
  0
ARC
  5
250
330
1F
100
AcDbEntity
  8
0
  6
Continuous
 62
     7
370
    25
100
AcDbCircle
 10
8.9569879732
 20
3.1396949885
 30
0.0
 40
0.9999999999999996
100
AcDbArc
 50
225.0
 51
45.0
  0
LINE
  5
251
330
1F
100
AcDbEntity
  8
0
  6
Continuous
 62
     7
370
    25
100
AcDbLine
 10
7.7641243014
 20
2.918345098
 30
0.0
 11
8.2498811921
 21
2.4325882073
 31
0.0
  0
ARC
  5
252
330
1F
100
AcDbEntity
  8
0
  6
Continuous
 62
     7
370
    25
100
AcDbCircle
 10
6.0626526636
 20
6.0340302981
 30
0.0
 40
3.549999999999999
100
AcDbArc
 50
241.361103524
 51
298.638896476
  0
LINE
  5
253
330
1F
100
AcDbEntity
  8
0
  6
Continuous
 62
     7
370
    25
100
AcDbLine
 10
3.8754241352
 20
2.4325882073
 30
0.0
 11
4.3611810259
 21
2.918345098
 31
0.0
  0
ARC
  5
254
330
1F
100
AcDbEntity
  8
0
  6
Continuous
 62
     7
370
    25
100
AcDbCircle
 10
3.1683173541
 20
3.1396949885
 30
0.0
 40
1.000000000000001
100
AcDbArc
 50
135.0
 51
315.0
  0
LINE
  5
255
330
1F
100
AcDbEntity
  8
0
  6
Continuous
 62
     7
370
    25
100
AcDbLine
 10
2.9469674636
 20
4.3325586604
 30
0.0
 11
2.4612105729
 21
3.8468017697
 31
0.0
  0
ARC
  5
256
330
1F
100
AcDbEntity
  8
0
  6
Continuous
 62
     7
370
    25
100
AcDbCircle
 10
6.0626526636
 20
6.0340302981
 30
0.0
 40
3.549999999999999
100
AcDbArc
 50
151.361103524
 51
208.638896476
  0
LINE
  5
257
330
1F
100
AcDbEntity
  8
0
  6
Continuous
 62
     7
370
    25
100
AcDbLine
 10
2.4612105729
 20
8.2212588265
 30
0.0
 11
2.9469674636
 21
7.7355019358
 31
0.0
  0
ARC
  5
258
330
1F
100
AcDbEntity
  8
0
  6
Continuous
 62
     7
370
    25
100
AcDbCircle
 10
3.1683173541
 20
8.9283656077
 30
0.0
 40
1.0
100
AcDbArc
 50
45.0
 51
225.0
  0
LINE
  5
259
330
1F
100
AcDbEntity
  8
0
  6
Continuous
 62
     7
370
    25
100
AcDbLine
 10
20.4044842196
 20
26.4827400832
 30
0.0
 11
19.8255776194
 21
27.5419410753
 31
0.0
  0
ARC
  5
25A
330
1F
100
AcDbEntity
  8
0
  6
Continuous
 62
     7
370
    25
100
AcDbCircle
 10
22.5626526636
 20
22.5340302981
 30
0.0
 40
4.499999999999998
100
AcDbArc
 50
61.3411772335
 51
118.6588227665
  0
LINE
  5
25B
330
1F
100
AcDbEntity
  8
0
  6
Continuous
 62
     7
370
    25
100
AcDbLine
 10
25.2997277079
 20
27.5419410753
 30
0.0
 11
24.7208211077
 21
26.4827400832
 31
0.0
  0
LINE
  5
25C
330
1F
100
AcDbEntity
  8
0
  6
Continuous
 62
     7
370
    25
100
AcDbLine
 10
24.8612994984
 20
27.9803692848
 30
0.0
 11
25.2997277079
 21
27.5419410753
 31
0.0
  0
ARC
  5
25D
330
1F
100
AcDbEntity
  8
0
  6
Continuous
 62
     7
370
    25
100
AcDbCircle
 10
25.0734315328
 20
28.1925013191
 30
0.0
 40
0.3000000000000095
100
AcDbArc
 50
90.0
 51
225.0
  0
LINE
  5
25E
330
1F
100
AcDbEntity
  8
0
  6
Continuous
 62
     7
370
    25
100
AcDbLine
 10
27.3861172533
 20
28.4925013191
 30
0.0
 11
25.0734315328
 21
28.4925013191
 31
0.0
  0
LINE
  5
25F
330
1F
100
AcDbEntity
  8
0
  6
Continuous
 62
     7
370
    25
100
AcDbLine
 10
28.5211236847
 20
27.3574948878
 30
0.0
 11
27.3861172533
 21
28.4925013191
 31
0.0
  0
LINE
  5
260
330
1F
100
AcDbEntity
  8
0
  6
Continuous
 62
     7
370
    25
100
AcDbLine
 10
28.5211236847
 20
25.0448091672
 30
0.0
 11
28.5211236847
 21
27.3574948878
 31
0.0
  0
ARC
  5
261
330
1F
100
AcDbEntity
  8
0
  6
Continuous
 62
     7
370
    25
100
AcDbCircle
 10
28.2211236847
 20
25.0448091672
 30
0.0
 40
0.2999999999999919
100
AcDbArc
 50
225.0
 51
0.0
  0
LINE
  5
262
330
1F
100
AcDbEntity
  8
0
  6
Continuous
 62
     7
370
    25
100
AcDbLine
 10
27.5705634408
 20
25.2711053424
 30
0.0
 11
28.0089916503
 21
24.8326771328
 31
0.0
  0
LINE
  5
263
330
1F
100
AcDbEntity
  8
0
  6
Continuous
 62
     7
370
    25
100
AcDbLine
 10
26.5113624488
 20
24.6921987421
 30
0.0
 11
27.5705634408
 21
25.2711053424
 31
0.0
  0
ARC
  5
264
330
1F
100
AcDbEntity
  8
0
  6
Continuous
 62
     7
370
    25
100
AcDbCircle
 10
22.5626526636
 20
22.5340302981
 30
0.0
 40
4.500000000000004
100
AcDbArc
 50
331.3411772335
 51
28.6588227665
  0
LINE
  5
265
330
1F
100
AcDbEntity
  8
0
  6
Continuous
 62
     7
370
    25
100
AcDbLine
 10
27.5705634408
 20
19.7969552538
 30
0.0
 11
26.5113624488
 21
20.375861854
 31
0.0
  0
LINE
  5
266
330
1F
100
AcDbEntity
  8
0
  6
Continuous
 62
     7
370
    25
100
AcDbLine
 10
28.0089916503
 20
20.2353834633
 30
0.0
 11
27.5705634408
 21
19.7969552538
 31
0.0
  0
ARC
  5
267
330
1F
100
AcDbEntity
  8
0
  6
Continuous
 62
     7
370
    25
100
AcDbCircle
 10
28.2211236847
 20
20.023251429
 30
0.0
 40
0.2999999999999994
100
AcDbArc
 50
0.0
 51
135.0
  0
LINE
  5
268
330
1F
100
AcDbEntity
  8
0
  6
Continuous
 62
     7
370
    25
100
AcDbLine
 10
28.5211236847
 20
17.7105657084
 30
0.0
 11
28.5211236847
 21
20.023251429
 31
0.0
  0
LINE
  5
269
330
1F
100
AcDbEntity
  8
0
  6
Continuous
 62
     7
370
    25
100
AcDbLine
 10
27.3861172533
 20
16.5755592771
 30
0.0
 11
28.5211236847
 21
17.7105657084
 31
0.0
  0
LINE
  5
26A
330
1F
100
AcDbEntity
  8
0
  6
Continuous
 62
     7
370
    25
100
AcDbLine
 10
25.0734315328
 20
16.5755592771
 30
0.0
 11
27.3861172533
 21
16.5755592771
 31
0.0
  0
ARC
  5
26B
330
1F
100
AcDbEntity
  8
0
  6
Continuous
 62
     7
370
    25
100
AcDbCircle
 10
25.0734315328
 20
16.8755592771
 30
0.0
 40
0.2999999999999918
100
AcDbArc
 50
135.0
 51
270.0
  0
LINE
  5
26C
330
1F
100
AcDbEntity
  8
0
  6
Continuous
 62
     7
370
    25
100
AcDbLine
 10
25.2997277079
 20
17.5261195209
 30
0.0
 11
24.8612994984
 21
17.0876913114
 31
0.0
  0
LINE
  5
26D
330
1F
100
AcDbEntity
  8
0
  6
Continuous
 62
     7
370
    25
100
AcDbLine
 10
24.7208211077
 20
18.585320513
 30
0.0
 11
25.2997277079
 21
17.5261195209
 31
0.0
  0
ARC
  5
26E
330
1F
100
AcDbEntity
  8
0
  6
Continuous
 62
     7
370
    25
100
AcDbCircle
 10
22.5626526636
 20
22.5340302981
 30
0.0
 40
4.500000000000011
100
AcDbArc
 50
241.3411772335
 51
298.6588227665
  0
LINE
  5
26F
330
1F
100
AcDbEntity
  8
0
  6
Continuous
 62
     7
370
    25
100
AcDbLine
 10
19.8255776194
 20
17.5261195209
 30
0.0
 11
20.4044842196
 21
18.585320513
 31
0.0
  0
LINE
  5
270
330
1F
100
AcDbEntity
  8
0
  6
Continuous
 62
     7
370
    25
100
AcDbLine
 10
20.2640058289
 20
17.0876913114
 30
0.0
 11
19.8255776194
 21
17.5261195209
 31
0.0
  0
ARC
  5
271
330
1F
100
AcDbEntity
  8
0
  6
Continuous
 62
     7
370
    25
100
AcDbCircle
 10
20.0518737945
 20
16.8755592771
 30
0.0
 40
0.3000000000000095
100
AcDbArc
 50
270.0
 51
45.0
  0
LINE
  5
272
330
1F
100
AcDbEntity
  8
0
  6
Continuous
 62
     7
370
    25
100
AcDbLine
 10
17.739188074
 20
16.5755592771
 30
0.0
 11
20.0518737945
 21
16.5755592771
 31
0.0
  0
LINE
  5
273
330
1F
100
AcDbEntity
  8
0
  6
Continuous
 62
     7
370
    25
100
AcDbLine
 10
16.6041816426
 20
17.7105657084
 30
0.0
 11
17.739188074
 21
16.5755592771
 31
0.0
  0
LINE
  5
274
330
1F
100
AcDbEntity
  8
0
  6
Continuous
 62
     7
370
    25
100
AcDbLine
 10
16.6041816426
 20
20.023251429
 30
0.0
 11
16.6041816426
 21
17.7105657084
 31
0.0
  0
ARC
  5
275
330
1F
100
AcDbEntity
  8
0
  6
Continuous
 62
     7
370
    25
100
AcDbCircle
 10
16.9041816426
 20
20.023251429
 30
0.0
 40
0.2999999999999893
100
AcDbArc
 50
45.0
 51
180.0
  0
LINE
  5
276
330
1F
100
AcDbEntity
  8
0
  6
Continuous
 62
     7
370
    25
100
AcDbLine
 10
17.5547418865
 20
19.7969552538
 30
0.0
 11
17.116313677
 21
20.2353834633
 31
0.0
  0
LINE
  5
277
330
1F
100
AcDbEntity
  8
0
  6
Continuous
 62
     7
370
    25
100
AcDbLine
 10
18.6139428785
 20
20.375861854
 30
0.0
 11
17.5547418865
 21
19.7969552538
 31
0.0
  0
ARC
  5
278
330
1F
100
AcDbEntity
  8
0
  6
Continuous
 62
     7
370
    25
100
AcDbCircle
 10
22.5626526636
 20
22.5340302981
 30
0.0
 40
4.500000000000009
100
AcDbArc
 50
151.3411772335
 51
208.6588227665
  0
LINE
  5
279
330
1F
100
AcDbEntity
  8
0
  6
Continuous
 62
     7
370
    25
100
AcDbLine
 10
17.5547418865
 20
25.2711053424
 30
0.0
 11
18.6139428785
 21
24.6921987421
 31
0.0
  0
LINE
  5
27A
330
1F
100
AcDbEntity
  8
0
  6
Continuous
 62
     7
370
    25
100
AcDbLine
 10
17.116313677
 20
24.8326771328
 30
0.0
 11
17.5547418865
 21
25.2711053424
 31
0.0
  0
ARC
  5
27B
330
1F
100
AcDbEntity
  8
0
  6
Continuous
 62
     7
370
    25
100
AcDbCircle
 10
16.9041816426
 20
25.0448091672
 30
0.0
 40
0.3000000000000095
100
AcDbArc
 50
180.0
 51
315.0
  0
LINE
  5
27C
330
1F
100
AcDbEntity
  8
0
  6
Continuous
 62
     7
370
    25
100
AcDbLine
 10
16.6041816426
 20
27.3574948878
 30
0.0
 11
16.6041816426
 21
25.0448091672
 31
0.0
  0
LINE
  5
27D
330
1F
100
AcDbEntity
  8
0
  6
Continuous
 62
     7
370
    25
100
AcDbLine
 10
17.739188074
 20
28.4925013191
 30
0.0
 11
16.6041816426
 21
27.3574948878
 31
0.0
  0
LINE
  5
27E
330
1F
100
AcDbEntity
  8
0
  6
Continuous
 62
     7
370
    25
100
AcDbLine
 10
20.0518737945
 20
28.4925013191
 30
0.0
 11
17.739188074
 21
28.4925013191
 31
0.0
  0
ARC
  5
27F
330
1F
100
AcDbEntity
  8
0
  6
Continuous
 62
     7
370
    25
100
AcDbCircle
 10
20.0518737945
 20
28.1925013191
 30
0.0
 40
0.2999999999999893
100
AcDbArc
 50
315.0
 51
90.0
  0
LINE
  5
280
330
1F
100
AcDbEntity
  8
0
  6
Continuous
 62
     7
370
    25
100
AcDbLine
 10
19.8255776194
 20
27.5419410753
 30
0.0
 11
20.2640058289
 21
27.9803692848
 31
0.0
  0
LINE
  5
281
330
1F
100
AcDbEntity
  8
0
  6
Continuous
 62
     7
370
    25
100
AcDbLine
 10
79.9589136068
 20
14.3582076539
 30
0.0
 11
100.2583642096
 21
14.3582076539
 31
0.0
  0
ARC
  5
282
330
1F
100
AcDbEntity
  8
0
  6
Continuous
 62
     7
370
    25
100
AcDbCircle
 10
100.2583642096
 20
13.3518700118
 30
0.0
 40
1.006337642081422
100
AcDbArc
 50
316.6533710014
 51
90.0
  0
LINE
  5
283
330
1F
100
AcDbEntity
  8
0
  6
Continuous
 62
     7
370
    25
100
AcDbLine
 10
99.4779097325
 20
11.0589336886
 30
0.0
 11
100.9901874115
 21
12.6611093796
 31
0.0
  0
LINE
  5
284
330
1F
100
AcDbEntity
  8
0
  6
Continuous
 62
     7
370
    25
100
AcDbLine
 10
99.4779097325
 20
4.9087612757
 30
0.0
 11
99.4779097325
 21
11.0589336886
 31
0.0
  0
ARC
  5
285
330
1F
100
AcDbEntity
  8
0
  6
Continuous
 62
     7
370
    25
100
AcDbCircle
 10
98.2882110095
 20
4.9087612757
 30
0.0
 40
1.18969872298682
100
AcDbArc
 50
270.0
 51
0.0
  0
LINE
  5
286
330
1F
100
AcDbEntity
  8
0
  6
Continuous
 62
     7
370
    25
100
AcDbLine
 10
98.2882110095
 20
3.7190625527
 30
0.0
 11
81.9290668068
 21
3.7190625527
 31
0.0
  0
ARC
  5
287
330
1F
100
AcDbEntity
  8
0
  6
Continuous
 62
     7
370
    25
100
AcDbCircle
 10
81.9290668068
 20
4.9087612757
 30
0.0
 40
1.18969872298682
100
AcDbArc
 50
180.0
 51
270.0
  0
LINE
  5
288
330
1F
100
AcDbEntity
  8
0
  6
Continuous
 62
     7
370
    25
100
AcDbLine
 10
80.7393680838
 20
4.9087612757
 30
0.0
 11
80.7393680838
 21
11.0589336886
 31
0.0
  0
LINE
  5
289
330
1F
100
AcDbEntity
  8
0
  6
Continuous
 62
     7
370
    25
100
AcDbLine
 10
80.7393680838
 20
11.0589336886
 30
0.0
 11
79.2270904049
 21
12.6611093796
 31
0.0
  0
ARC
  5
28A
330
1F
100
AcDbEntity
  8
0
  6
Continuous
 62
     7
370
    25
100
AcDbCircle
 10
79.9589136068
 20
13.3518700118
 30
0.0
 40
1.006337642081422
100
AcDbArc
 50
90.0
 51
223.3466289986
  0
LINE
  5
28B
330
1F
100
AcDbEntity
  8
0
  6
Continuous
 62
     7
370
    25
100
AcDbLine
 10
116.6033349378
 20
20.375861854
 30
0.0
 11
117.6625359299
 21
19.7969552538
 31
0.0
  0
LINE
  5
28C
330
1F
100
AcDbEntity
  8
0
  6
Continuous
 62
     7
370
    25
100
AcDbLine
 10
117.6625359299
 20
19.7969552538
 30
0.0
 11
118.1009641394
 21
20.2353834633
 31
0.0
  0
ARC
  5
28D
330
1F
100
AcDbEntity
  8
0
  6
Continuous
 62
     7
370
    25
100
AcDbCircle
 10
118.3130961737
 20
20.023251429
 30
0.0
 40
0.300000000000012
100
AcDbArc
 50
0.0
 51
135.0
  0
LINE
  5
28E
330
1F
100
AcDbEntity
  8
0
  6
Continuous
 62
     7
370
    25
100
AcDbLine
 10
118.6130961737
 20
20.023251429
 30
0.0
 11
118.6130961737
 21
17.7105657084
 31
0.0
  0
LINE
  5
28F
330
1F
100
AcDbEntity
  8
0
  6
Continuous
 62
     7
370
    25
100
AcDbLine
 10
118.6130961737
 20
17.7105657084
 30
0.0
 11
117.4780897424
 21
16.5755592771
 31
0.0
  0
LINE
  5
290
330
1F
100
AcDbEntity
  8
0
  6
Continuous
 62
     7
370
    25
100
AcDbLine
 10
117.4780897424
 20
16.5755592771
 30
0.0
 11
115.1654040218
 21
16.5755592771
 31
0.0
  0
ARC
  5
291
330
1F
100
AcDbEntity
  8
0
  6
Continuous
 62
     7
370
    25
100
AcDbCircle
 10
115.1654040218
 20
16.8755592771
 30
0.0
 40
0.2999999999999865
100
AcDbArc
 50
135.0
 51
270.0
  0
LINE
  5
292
330
1F
100
AcDbEntity
  8
0
  6
Continuous
 62
     7
370
    25
100
AcDbLine
 10
114.9532719874
 20
17.0876913114
 30
0.0
 11
115.3917001969
 21
17.5261195209
 31
0.0
  0
LINE
  5
293
330
1F
100
AcDbEntity
  8
0
  6
Continuous
 62
     7
370
    25
100
AcDbLine
 10
115.3917001969
 20
17.5261195209
 30
0.0
 11
114.8127935967
 21
18.585320513
 31
0.0
  0
ARC
  5
294
330
1F
100
AcDbEntity
  8
0
  6
Continuous
 62
     7
370
    25
100
AcDbCircle
 10
112.6546251527
 20
22.5340302981
 30
0.0
 40
4.500000000000018
100
AcDbArc
 50
241.3411772335
 51
298.6588227665
  0
LINE
  5
295
330
1F
100
AcDbEntity
  8
0
  6
Continuous
 62
     7
370
    25
100
AcDbLine
 10
110.4964567086
 20
18.585320513
 30
0.0
 11
109.9175501084
 21
17.5261195209
 31
0.0
  0
LINE
  5
296
330
1F
100
AcDbEntity
  8
0
  6
Continuous
 62
     7
370
    25
100
AcDbLine
 10
109.9175501084
 20
17.5261195209
 30
0.0
 11
110.3559783179
 21
17.0876913114
 31
0.0
  0
ARC
  5
297
330
1F
100
AcDbEntity
  8
0
  6
Continuous
 62
     7
370
    25
100
AcDbCircle
 10
110.1438462836
 20
16.8755592771
 30
0.0
 40
0.3000000000000044
100
AcDbArc
 50
270.0
 51
45.0
  0
LINE
  5
298
330
1F
100
AcDbEntity
  8
0
  6
Continuous
 62
     7
370
    25
100
AcDbLine
 10
110.1438462836
 20
16.5755592771
 30
0.0
 11
107.831160563
 21
16.5755592771
 31
0.0
  0
LINE
  5
299
330
1F
100
AcDbEntity
  8
0
  6
Continuous
 62
     7
370
    25
100
AcDbLine
 10
107.831160563
 20
16.5755592771
 30
0.0
 11
106.6961541316
 21
17.7105657084
 31
0.0
  0
LINE
  5
29A
330
1F
100
AcDbEntity
  8
0
  6
Continuous
 62
     7
370
    25
100
AcDbLine
 10
106.6961541316
 20
17.7105657084
 30
0.0
 11
106.6961541316
 21
20.023251429
 31
0.0
  0
ARC
  5
29B
330
1F
100
AcDbEntity
  8
0
  6
Continuous
 62
     7
370
    25
100
AcDbCircle
 10
106.9961541316
 20
20.023251429
 30
0.0
 40
0.2999999999999919
100
AcDbArc
 50
45.0
 51
180.0
  0
LINE
  5
29C
330
1F
100
AcDbEntity
  8
0
  6
Continuous
 62
     7
370
    25
100
AcDbLine
 10
107.208286166
 20
20.2353834633
 30
0.0
 11
107.6467143755
 21
19.7969552538
 31
0.0
  0
LINE
  5
29D
330
1F
100
AcDbEntity
  8
0
  6
Continuous
 62
     7
370
    25
100
AcDbLine
 10
107.6467143755
 20
19.7969552538
 30
0.0
 11
108.7059153676
 21
20.375861854
 31
0.0
  0
ARC
  5
29E
330
1F
100
AcDbEntity
  8
0
  6
Continuous
 62
     7
370
    25
100
AcDbCircle
 10
112.6546251527
 20
22.5340302981
 30
0.0
 40
4.500000000000015
100
AcDbArc
 50
151.3411772335
 51
208.6588227665
  0
LINE
  5
29F
330
1F
100
AcDbEntity
  8
0
  6
Continuous
 62
     7
370
    25
100
AcDbLine
 10
108.7059153676
 20
24.6921987421
 30
0.0
 11
107.6467143755
 21
25.2711053424
 31
0.0
  0
LINE
  5
2A0
330
1F
100
AcDbEntity
  8
0
  6
Continuous
 62
     7
370
    25
100
AcDbLine
 10
107.6467143755
 20
25.2711053424
 30
0.0
 11
107.208286166
 21
24.8326771328
 31
0.0
  0
ARC
  5
2A1
330
1F
100
AcDbEntity
  8
0
  6
Continuous
 62
     7
370
    25
100
AcDbCircle
 10
106.9961541316
 20
25.0448091672
 30
0.0
 40
0.3000000000000095
100
AcDbArc
 50
180.0
 51
315.0
  0
LINE
  5
2A2
330
1F
100
AcDbEntity
  8
0
  6
Continuous
 62
     7
370
    25
100
AcDbLine
 10
106.6961541316
 20
25.0448091672
 30
0.0
 11
106.6961541316
 21
27.3574948878
 31
0.0
  0
LINE
  5
2A3
330
1F
100
AcDbEntity
  8
0
  6
Continuous
 62
     7
370
    25
100
AcDbLine
 10
106.6961541316
 20
27.3574948878
 30
0.0
 11
107.831160563
 21
28.4925013191
 31
0.0
  0
LINE
  5
2A4
330
1F
100
AcDbEntity
  8
0
  6
Continuous
 62
     7
370
    25
100
AcDbLine
 10
107.831160563
 20
28.4925013191
 30
0.0
 11
110.1438462836
 21
28.4925013191
 31
0.0
  0
ARC
  5
2A5
330
1F
100
AcDbEntity
  8
0
  6
Continuous
 62
     7
370
    25
100
AcDbCircle
 10
110.1438462836
 20
28.1925013191
 30
0.0
 40
0.2999999999999868
100
AcDbArc
 50
315.0
 51
90.0
  0
LINE
  5
2A6
330
1F
100
AcDbEntity
  8
0
  6
Continuous
 62
     7
370
    25
100
AcDbLine
 10
110.3559783179
 20
27.9803692848
 30
0.0
 11
109.9175501084
 21
27.5419410753
 31
0.0
  0
LINE
  5
2A7
330
1F
100
AcDbEntity
  8
0
  6
Continuous
 62
     7
370
    25
100
AcDbLine
 10
109.9175501084
 20
27.5419410753
 30
0.0
 11
110.4964567086
 21
26.4827400832
 31
0.0
  0
ARC
  5
2A8
330
1F
100
AcDbEntity
  8
0
  6
Continuous
 62
     7
370
    25
100
AcDbCircle
 10
112.6546251527
 20
22.5340302981
 30
0.0
 40
4.499999999999999
100
AcDbArc
 50
61.3411772335
 51
118.6588227665
  0
LINE
  5
2A9
330
1F
100
AcDbEntity
  8
0
  6
Continuous
 62
     7
370
    25
100
AcDbLine
 10
114.8127935967
 20
26.4827400832
 30
0.0
 11
115.3917001969
 21
27.5419410753
 31
0.0
  0
LINE
  5
2AA
330
1F
100
AcDbEntity
  8
0
  6
Continuous
 62
     7
370
    25
100
AcDbLine
 10
115.3917001969
 20
27.5419410753
 30
0.0
 11
114.9532719874
 21
27.9803692848
 31
0.0
  0
ARC
  5
2AB
330
1F
100
AcDbEntity
  8
0
  6
Continuous
 62
     7
370
    25
100
AcDbCircle
 10
115.1654040218
 20
28.1925013191
 30
0.0
 40
0.3000000000000044
100
AcDbArc
 50
90.0
 51
225.0
  0
LINE
  5
2AC
330
1F
100
AcDbEntity
  8
0
  6
Continuous
 62
     7
370
    25
100
AcDbLine
 10
115.1654040218
 20
28.4925013191
 30
0.0
 11
117.4780897424
 21
28.4925013191
 31
0.0
  0
LINE
  5
2AD
330
1F
100
AcDbEntity
  8
0
  6
Continuous
 62
     7
370
    25
100
AcDbLine
 10
117.4780897424
 20
28.4925013191
 30
0.0
 11
118.6130961737
 21
27.3574948878
 31
0.0
  0
LINE
  5
2AE
330
1F
100
AcDbEntity
  8
0
  6
Continuous
 62
     7
370
    25
100
AcDbLine
 10
118.6130961737
 20
27.3574948878
 30
0.0
 11
118.6130961737
 21
25.0448091672
 31
0.0
  0
ARC
  5
2AF
330
1F
100
AcDbEntity
  8
0
  6
Continuous
 62
     7
370
    25
100
AcDbCircle
 10
118.3130961737
 20
25.0448091672
 30
0.0
 40
0.2999999999999919
100
AcDbArc
 50
225.0
 51
0.0
  0
LINE
  5
2B0
330
1F
100
AcDbEntity
  8
0
  6
Continuous
 62
     7
370
    25
100
AcDbLine
 10
118.1009641394
 20
24.8326771328
 30
0.0
 11
117.6625359299
 21
25.2711053424
 31
0.0
  0
LINE
  5
2B1
330
1F
100
AcDbEntity
  8
0
  6
Continuous
 62
     7
370
    25
100
AcDbLine
 10
117.6625359299
 20
25.2711053424
 30
0.0
 11
116.6033349378
 21
24.6921987421
 31
0.0
  0
ARC
  5
2B2
330
1F
100
AcDbEntity
  8
0
  6
Continuous
 62
     7
370
    25
100
AcDbCircle
 10
112.6546251527
 20
22.5340302981
 30
0.0
 40
4.500000000000006
100
AcDbArc
 50
331.3411772335
 51
28.6588227665
  0
LINE
  5
2B3
330
1F
100
AcDbEntity
  8
0
  6
Continuous
 62
     7
370
    25
100
AcDbLine
 10
143.2882110095
 20
3.7190625527
 30
0.0
 11
127.0210392958
 21
3.7190625527
 31
0.0
  0
ARC
  5
2B4
330
1F
100
AcDbEntity
  8
0
  6
Continuous
 62
     7
370
    25
100
AcDbCircle
 10
127.0210392958
 20
4.9087612757
 30
0.0
 40
1.189698722986819
100
AcDbArc
 50
180.0
 51
270.0
  0
LINE
  5
2B5
330
1F
100
AcDbEntity
  8
0
  6
Continuous
 62
     7
370
    25
100
AcDbLine
 10
125.8313405729
 20
4.9087612757
 30
0.0
 11
125.8313405729
 21
11.0589336886
 31
0.0
  0
LINE
  5
2B6
330
1F
100
AcDbEntity
  8
0
  6
Continuous
 62
     7
370
    25
100
AcDbLine
 10
125.8313405729
 20
11.0589336886
 30
0.0
 11
124.3190628939
 21
12.6611093796
 31
0.0
  0
ARC
  5
2B7
330
1F
100
AcDbEntity
  8
0
  6
Continuous
 62
     7
370
    25
100
AcDbCircle
 10
125.0508860958
 20
13.3518700118
 30
0.0
 40
1.006337642081524
100
AcDbArc
 50
90.0
 51
223.3466289986
  0
LINE
  5
2B8
330
1F
100
AcDbEntity
  8
0
  6
Continuous
 62
     7
370
    25
100
AcDbLine
 10
125.0508860958
 20
14.3582076539
 30
0.0
 11
145.2583642096
 21
14.3582076539
 31
0.0
  0
ARC
  5
2B9
330
1F
100
AcDbEntity
  8
0
  6
Continuous
 62
     7
370
    25
100
AcDbCircle
 10
145.2583642096
 20
13.3518700118
 30
0.0
 40
1.00633764208141
100
AcDbArc
 50
316.6533710014
 51
90.0
  0
LINE
  5
2BA
330
1F
100
AcDbEntity
  8
0
  6
Continuous
 62
     7
370
    25
100
AcDbLine
 10
145.9901874115
 20
12.6611093796
 30
0.0
 11
144.4779097325
 21
11.0589336886
 31
0.0
  0
LINE
  5
2BB
330
1F
100
AcDbEntity
  8
0
  6
Continuous
 62
     7
370
    25
100
AcDbLine
 10
144.4779097325
 20
11.0589336886
 30
0.0
 11
144.4779097325
 21
4.9087612757
 31
0.0
  0
ARC
  5
2BC
330
1F
100
AcDbEntity
  8
0
  6
Continuous
 62
     7
370
    25
100
AcDbCircle
 10
143.2882110095
 20
4.9087612757
 30
0.0
 40
1.189698722986813
100
AcDbArc
 50
270.0
 51
0.0
  0
LINE
  5
2BD
330
1F
100
AcDbEntity
  8
0
  6
Continuous
 62
     7
370
    25
100
AcDbLine
 10
175.8560967904
 20
9.1497154982
 30
0.0
 11
176.3418536811
 21
9.6354723889
 31
0.0
  0
ARC
  5
2BE
330
1F
100
AcDbEntity
  8
0
  6
Continuous
 62
     7
370
    25
100
AcDbCircle
 10
177.0489604623
 20
8.9283656077
 30
0.0
 40
1.000000000000004
100
AcDbArc
 50
315.0
 51
135.0
  0
LINE
  5
2BF
330
1F
100
AcDbEntity
  8
0
  6
Continuous
 62
     7
370
    25
100
AcDbLine
 10
177.7560672435
 20
8.2212588265
 30
0.0
 11
177.2703103528
 21
7.7355019358
 31
0.0
  0
ARC
  5
2C0
330
1F
100
AcDbEntity
  8
0
  6
Continuous
 62
     7
370
    25
100
AcDbCircle
 10
174.1546251527
 20
6.0340302981
 30
0.0
 40
3.550000000000023
100
AcDbArc
 50
331.361103524
 51
28.638896476
  0
LINE
  5
2C1
330
1F
100
AcDbEntity
  8
0
  6
Continuous
 62
     7
370
    25
100
AcDbLine
 10
177.2703103528
 20
4.3325586604
 30
0.0
 11
177.7560672435
 21
3.8468017697
 31
0.0
  0
ARC
  5
2C2
330
1F
100
AcDbEntity
  8
0
  6
Continuous
 62
     7
370
    25
100
AcDbCircle
 10
177.0489604623
 20
3.1396949885
 30
0.0
 40
1.000000000000004
100
AcDbArc
 50
225.0
 51
45.0
  0
LINE
  5
2C3
330
1F
100
AcDbEntity
  8
0
  6
Continuous
 62
     7
370
    25
100
AcDbLine
 10
176.3418536811
 20
2.4325882073
 30
0.0
 11
175.8560967904
 21
2.918345098
 31
0.0
  0
ARC
  5
2C4
330
1F
100
AcDbEntity
  8
0
  6
Continuous
 62
     7
370
    25
100
AcDbCircle
 10
174.1546251527
 20
6.0340302981
 30
0.0
 40
3.550000000000006
100
AcDbArc
 50
241.361103524
 51
298.638896476
  0
LINE
  5
2C5
330
1F
100
AcDbEntity
  8
0
  6
Continuous
 62
     7
370
    25
100
AcDbLine
 10
172.453153515
 20
2.918345098
 30
0.0
 11
171.9673966243
 21
2.4325882073
 31
0.0
  0
ARC
  5
2C6
330
1F
100
AcDbEntity
  8
0
  6
Continuous
 62
     7
370
    25
100
AcDbCircle
 10
171.2602898431
 20
3.1396949885
 30
0.0
 40
1.000000000000005
100
AcDbArc
 50
135.0
 51
315.0
  0
LINE
  5
2C7
330
1F
100
AcDbEntity
  8
0
  6
Continuous
 62
     7
370
    25
100
AcDbLine
 10
170.5531830619
 20
3.8468017697
 30
0.0
 11
171.0389399526
 21
4.3325586604
 31
0.0
  0
ARC
  5
2C8
330
1F
100
AcDbEntity
  8
0
  6
Continuous
 62
     7
370
    25
100
AcDbCircle
 10
174.1546251527
 20
6.0340302981
 30
0.0
 40
3.549999999999998
100
AcDbArc
 50
151.361103524
 51
208.638896476
  0
LINE
  5
2C9
330
1F
100
AcDbEntity
  8
0
  6
Continuous
 62
     7
370
    25
100
AcDbLine
 10
171.0389399526
 20
7.7355019358
 30
0.0
 11
170.5531830619
 21
8.2212588265
 31
0.0
  0
ARC
  5
2CA
330
1F
100
AcDbEntity
  8
0
  6
Continuous
 62
     7
370
    25
100
AcDbCircle
 10
171.2602898431
 20
8.9283656077
 30
0.0
 40
1.000000000000004
100
AcDbArc
 50
45.0
 51
225.0
  0
LINE
  5
2CB
330
1F
100
AcDbEntity
  8
0
  6
Continuous
 62
     7
370
    25
100
AcDbLine
 10
171.9673966243
 20
9.6354723889
 30
0.0
 11
172.453153515
 21
9.1497154982
 31
0.0
  0
ARC
  5
2CC
330
1F
100
AcDbEntity
  8
0
  6
Continuous
 62
     7
370
    25
100
AcDbCircle
 10
174.1546251527
 20
6.0340302981
 30
0.0
 40
3.550000000000006
100
AcDbArc
 50
61.361103524
 51
118.638896476
  0
LINE
  5
2CD
330
1F
100
AcDbEntity
  8
0
  6
Continuous
 62
     7
370
    25
100
AcDbLine
 10
159.8127935967
 20
26.4827400832
 30
0.0
 11
160.3917001969
 21
27.5419410753
 31
0.0
  0
LINE
  5
2CE
330
1F
100
AcDbEntity
  8
0
  6
Continuous
 62
     7
370
    25
100
AcDbLine
 10
160.3917001969
 20
27.5419410753
 30
0.0
 11
159.9532719874
 21
27.9803692848
 31
0.0
  0
ARC
  5
2CF
330
1F
100
AcDbEntity
  8
0
  6
Continuous
 62
     7
370
    25
100
AcDbCircle
 10
160.1654040218
 20
28.1925013191
 30
0.0
 40
0.3000000000000044
100
AcDbArc
 50
90.0
 51
225.0
  0
LINE
  5
2D0
330
1F
100
AcDbEntity
  8
0
  6
Continuous
 62
     7
370
    25
100
AcDbLine
 10
160.1654040218
 20
28.4925013191
 30
0.0
 11
162.4780897424
 21
28.4925013191
 31
0.0
  0
LINE
  5
2D1
330
1F
100
AcDbEntity
  8
0
  6
Continuous
 62
     7
370
    25
100
AcDbLine
 10
162.4780897424
 20
28.4925013191
 30
0.0
 11
163.6130961737
 21
27.3574948878
 31
0.0
  0
LINE
  5
2D2
330
1F
100
AcDbEntity
  8
0
  6
Continuous
 62
     7
370
    25
100
AcDbLine
 10
163.6130961737
 20
27.3574948878
 30
0.0
 11
163.6130961737
 21
25.0448091672
 31
0.0
  0
ARC
  5
2D3
330
1F
100
AcDbEntity
  8
0
  6
Continuous
 62
     7
370
    25
100
AcDbCircle
 10
163.3130961737
 20
25.0448091672
 30
0.0
 40
0.3000000000000114
100
AcDbArc
 50
225.0
 51
0.0
  0
LINE
  5
2D4
330
1F
100
AcDbEntity
  8
0
  6
Continuous
 62
     7
370
    25
100
AcDbLine
 10
163.1009641394
 20
24.8326771328
 30
0.0
 11
162.6625359299
 21
25.2711053424
 31
0.0
  0
LINE
  5
2D5
330
1F
100
AcDbEntity
  8
0
  6
Continuous
 62
     7
370
    25
100
AcDbLine
 10
162.6625359299
 20
25.2711053424
 30
0.0
 11
161.6033349378
 21
24.6921987421
 31
0.0
  0
ARC
  5
2D6
330
1F
100
AcDbEntity
  8
0
  6
Continuous
 62
     7
370
    25
100
AcDbCircle
 10
157.6546251527
 20
22.5340302981
 30
0.0
 40
4.500000000000015
100
AcDbArc
 50
331.3411772335
 51
28.6588227665
  0
LINE
  5
2D7
330
1F
100
AcDbEntity
  8
0
  6
Continuous
 62
     7
370
    25
100
AcDbLine
 10
161.6033349378
 20
20.375861854
 30
0.0
 11
162.6625359299
 21
19.7969552538
 31
0.0
  0
LINE
  5
2D8
330
1F
100
AcDbEntity
  8
0
  6
Continuous
 62
     7
370
    25
100
AcDbLine
 10
162.6625359299
 20
19.7969552538
 30
0.0
 11
163.1009641394
 21
20.2353834633
 31
0.0
  0
ARC
  5
2D9
330
1F
100
AcDbEntity
  8
0
  6
Continuous
 62
     7
370
    25
100
AcDbCircle
 10
163.3130961737
 20
20.023251429
 30
0.0
 40
0.2999999999999829
100
AcDbArc
 50
0.0
 51
135.0
  0
LINE
  5
2DA
330
1F
100
AcDbEntity
  8
0
  6
Continuous
 62
     7
370
    25
100
AcDbLine
 10
163.6130961737
 20
20.023251429
 30
0.0
 11
163.6130961737
 21
17.7105657084
 31
0.0
  0
LINE
  5
2DB
330
1F
100
AcDbEntity
  8
0
  6
Continuous
 62
     7
370
    25
100
AcDbLine
 10
163.6130961737
 20
17.7105657084
 30
0.0
 11
162.4780897424
 21
16.5755592771
 31
0.0
  0
LINE
  5
2DC
330
1F
100
AcDbEntity
  8
0
  6
Continuous
 62
     7
370
    25
100
AcDbLine
 10
162.4780897424
 20
16.5755592771
 30
0.0
 11
160.1654040218
 21
16.5755592771
 31
0.0
  0
ARC
  5
2DD
330
1F
100
AcDbEntity
  8
0
  6
Continuous
 62
     7
370
    25
100
AcDbCircle
 10
160.1654040218
 20
16.8755592771
 30
0.0
 40
0.3000000000000145
100
AcDbArc
 50
135.0
 51
270.0
  0
LINE
  5
2DE
330
1F
100
AcDbEntity
  8
0
  6
Continuous
 62
     7
370
    25
100
AcDbLine
 10
159.9532719874
 20
17.0876913114
 30
0.0
 11
160.3917001969
 21
17.5261195209
 31
0.0
  0
LINE
  5
2DF
330
1F
100
AcDbEntity
  8
0
  6
Continuous
 62
     7
370
    25
100
AcDbLine
 10
160.3917001969
 20
17.5261195209
 30
0.0
 11
159.8127935967
 21
18.585320513
 31
0.0
  0
ARC
  5
2E0
330
1F
100
AcDbEntity
  8
0
  6
Continuous
 62
     7
370
    25
100
AcDbCircle
 10
157.6546251527
 20
22.5340302981
 30
0.0
 40
4.500000000000018
100
AcDbArc
 50
241.3411772335
 51
298.6588227665
  0
LINE
  5
2E1
330
1F
100
AcDbEntity
  8
0
  6
Continuous
 62
     7
370
    25
100
AcDbLine
 10
155.4964567086
 20
18.585320513
 30
0.0
 11
154.9175501084
 21
17.5261195209
 31
0.0
  0
LINE
  5
2E2
330
1F
100
AcDbEntity
  8
0
  6
Continuous
 62
     7
370
    25
100
AcDbLine
 10
154.9175501084
 20
17.5261195209
 30
0.0
 11
155.3559783179
 21
17.0876913114
 31
0.0
  0
ARC
  5
2E3
330
1F
100
AcDbEntity
  8
0
  6
Continuous
 62
     7
370
    25
100
AcDbCircle
 10
155.1438462836
 20
16.8755592771
 30
0.0
 40
0.2999999999999865
100
AcDbArc
 50
270.0
 51
45.0
  0
LINE
  5
2E4
330
1F
100
AcDbEntity
  8
0
  6
Continuous
 62
     7
370
    25
100
AcDbLine
 10
155.1438462836
 20
16.5755592771
 30
0.0
 11
152.831160563
 21
16.5755592771
 31
0.0
  0
LINE
  5
2E5
330
1F
100
AcDbEntity
  8
0
  6
Continuous
 62
     7
370
    25
100
AcDbLine
 10
152.831160563
 20
16.5755592771
 30
0.0
 11
151.6961541316
 21
17.7105657084
 31
0.0
  0
LINE
  5
2E6
330
1F
100
AcDbEntity
  8
0
  6
Continuous
 62
     7
370
    25
100
AcDbLine
 10
151.6961541316
 20
17.7105657084
 30
0.0
 11
151.6961541316
 21
20.023251429
 31
0.0
  0
ARC
  5
2E7
330
1F
100
AcDbEntity
  8
0
  6
Continuous
 62
     7
370
    25
100
AcDbCircle
 10
151.9961541316
 20
20.023251429
 30
0.0
 40
0.3000000000000114
100
AcDbArc
 50
45.0
 51
180.0
  0
LINE
  5
2E8
330
1F
100
AcDbEntity
  8
0
  6
Continuous
 62
     7
370
    25
100
AcDbLine
 10
152.208286166
 20
20.2353834633
 30
0.0
 11
152.6467143755
 21
19.7969552538
 31
0.0
  0
LINE
  5
2E9
330
1F
100
AcDbEntity
  8
0
  6
Continuous
 62
     7
370
    25
100
AcDbLine
 10
152.6467143755
 20
19.7969552538
 30
0.0
 11
153.7059153676
 21
20.375861854
 31
0.0
  0
ARC
  5
2EA
330
1F
100
AcDbEntity
  8
0
  6
Continuous
 62
     7
370
    25
100
AcDbCircle
 10
157.6546251527
 20
22.5340302981
 30
0.0
 40
4.500000000000008
100
AcDbArc
 50
151.3411772335
 51
208.6588227665
  0
LINE
  5
2EB
330
1F
100
AcDbEntity
  8
0
  6
Continuous
 62
     7
370
    25
100
AcDbLine
 10
153.7059153676
 20
24.6921987421
 30
0.0
 11
152.6467143755
 21
25.2711053424
 31
0.0
  0
LINE
  5
2EC
330
1F
100
AcDbEntity
  8
0
  6
Continuous
 62
     7
370
    25
100
AcDbLine
 10
152.6467143755
 20
25.2711053424
 30
0.0
 11
152.208286166
 21
24.8326771328
 31
0.0
  0
ARC
  5
2ED
330
1F
100
AcDbEntity
  8
0
  6
Continuous
 62
     7
370
    25
100
AcDbCircle
 10
151.9961541316
 20
25.0448091672
 30
0.0
 40
0.2999999999999829
100
AcDbArc
 50
180.0
 51
315.0
  0
LINE
  5
2EE
330
1F
100
AcDbEntity
  8
0
  6
Continuous
 62
     7
370
    25
100
AcDbLine
 10
151.6961541316
 20
25.0448091672
 30
0.0
 11
151.6961541316
 21
27.3574948878
 31
0.0
  0
LINE
  5
2EF
330
1F
100
AcDbEntity
  8
0
  6
Continuous
 62
     7
370
    25
100
AcDbLine
 10
151.6961541316
 20
27.3574948878
 30
0.0
 11
152.831160563
 21
28.4925013191
 31
0.0
  0
LINE
  5
2F0
330
1F
100
AcDbEntity
  8
0
  6
Continuous
 62
     7
370
    25
100
AcDbLine
 10
152.831160563
 20
28.4925013191
 30
0.0
 11
155.1438462836
 21
28.4925013191
 31
0.0
  0
ARC
  5
2F1
330
1F
100
AcDbEntity
  8
0
  6
Continuous
 62
     7
370
    25
100
AcDbCircle
 10
155.1438462836
 20
28.1925013191
 30
0.0
 40
0.3000000000000145
100
AcDbArc
 50
315.0
 51
90.0
  0
LINE
  5
2F2
330
1F
100
AcDbEntity
  8
0
  6
Continuous
 62
     7
370
    25
100
AcDbLine
 10
155.3559783179
 20
27.9803692848
 30
0.0
 11
154.9175501084
 21
27.5419410753
 31
0.0
  0
LINE
  5
2F3
330
1F
100
AcDbEntity
  8
0
  6
Continuous
 62
     7
370
    25
100
AcDbLine
 10
154.9175501084
 20
27.5419410753
 30
0.0
 11
155.4964567086
 21
26.4827400832
 31
0.0
  0
ARC
  5
2F4
330
1F
100
AcDbEntity
  8
0
  6
Continuous
 62
     7
370
    25
100
AcDbCircle
 10
157.6546251527
 20
22.5340302981
 30
0.0
 40
4.499999999999996
100
AcDbArc
 50
61.3411772335
 51
118.6588227665
  0
LINE
  5
2F5
330
1F
100
AcDbEntity
  8
0
  6
Continuous
 62
     7
370
    25
100
AcDbLine
 10
63.6139428785
 20
69.6921987421
 30
0.0
 11
62.5547418865
 21
70.2711053424
 31
0.0
  0
LINE
  5
2F6
330
1F
100
AcDbEntity
  8
0
  6
Continuous
 62
     7
370
    25
100
AcDbLine
 10
62.5547418865
 20
70.2711053424
 30
0.0
 11
62.116313677
 21
69.8326771328
 31
0.0
  0
ARC
  5
2F7
330
1F
100
AcDbEntity
  8
0
  6
Continuous
 62
     7
370
    25
100
AcDbCircle
 10
61.9041816426
 20
70.0448091672
 30
0.0
 40
0.3000000000000044
100
AcDbArc
 50
180.0
 51
315.0
  0
LINE
  5
2F8
330
1F
100
AcDbEntity
  8
0
  6
Continuous
 62
     7
370
    25
100
AcDbLine
 10
61.6041816426
 20
70.0448091672
 30
0.0
 11
61.6041816426
 21
72.3574948878
 31
0.0
  0
LINE
  5
2F9
330
1F
100
AcDbEntity
  8
0
  6
Continuous
 62
     7
370
    25
100
AcDbLine
 10
61.6041816426
 20
72.3574948878
 30
0.0
 11
62.739188074
 21
73.4925013191
 31
0.0
  0
LINE
  5
2FA
330
1F
100
AcDbEntity
  8
0
  6
Continuous
 62
     7
370
    25
100
AcDbLine
 10
62.739188074
 20
73.4925013191
 30
0.0
 11
65.0518737945
 21
73.4925013191
 31
0.0
  0
ARC
  5
2FB
330
1F
100
AcDbEntity
  8
0
  6
Continuous
 62
     7
370
    25
100
AcDbCircle
 10
65.0518737945
 20
73.1925013191
 30
0.0
 40
0.3000000000000044
100
AcDbArc
 50
315.0
 51
90.0
  0
LINE
  5
2FC
330
1F
100
AcDbEntity
  8
0
  6
Continuous
 62
     7
370
    25
100
AcDbLine
 10
65.2640058289
 20
72.9803692848
 30
0.0
 11
64.8255776194
 21
72.5419410753
 31
0.0
  0
LINE
  5
2FD
330
1F
100
AcDbEntity
  8
0
  6
Continuous
 62
     7
370
    25
100
AcDbLine
 10
64.8255776194
 20
72.5419410753
 30
0.0
 11
65.4044842196
 21
71.4827400832
 31
0.0
  0
ARC
  5
2FE
330
1F
100
AcDbEntity
  8
0
  6
Continuous
 62
     7
370
    25
100
AcDbCircle
 10
67.5626526636
 20
67.5340302981
 30
0.0
 40
4.500000000000008
100
AcDbArc
 50
61.3411772335
 51
118.6588227665
  0
LINE
  5
2FF
330
1F
100
AcDbEntity
  8
0
  6
Continuous
 62
     7
370
    25
100
AcDbLine
 10
69.7208211077
 20
71.4827400832
 30
0.0
 11
70.2997277079
 21
72.5419410753
 31
0.0
  0
LINE
  5
300
330
1F
100
AcDbEntity
  8
0
  6
Continuous
 62
     7
370
    25
100
AcDbLine
 10
70.2997277079
 20
72.5419410753
 30
0.0
 11
69.8612994984
 21
72.9803692848
 31
0.0
  0
ARC
  5
301
330
1F
100
AcDbEntity
  8
0
  6
Continuous
 62
     7
370
    25
100
AcDbCircle
 10
70.0734315328
 20
73.1925013191
 30
0.0
 40
0.3000000000000145
100
AcDbArc
 50
90.0
 51
225.0
  0
LINE
  5
302
330
1F
100
AcDbEntity
  8
0
  6
Continuous
 62
     7
370
    25
100
AcDbLine
 10
70.0734315328
 20
73.4925013191
 30
0.0
 11
72.3861172533
 21
73.4925013191
 31
0.0
  0
LINE
  5
303
330
1F
100
AcDbEntity
  8
0
  6
Continuous
 62
     7
370
    25
100
AcDbLine
 10
72.3861172533
 20
73.4925013191
 30
0.0
 11
73.5211236847
 21
72.3574948878
 31
0.0
  0
LINE
  5
304
330
1F
100
AcDbEntity
  8
0
  6
Continuous
 62
     7
370
    25
100
AcDbLine
 10
73.5211236847
 20
72.3574948878
 30
0.0
 11
73.5211236847
 21
70.0448091672
 31
0.0
  0
ARC
  5
305
330
1F
100
AcDbEntity
  8
0
  6
Continuous
 62
     7
370
    25
100
AcDbCircle
 10
73.2211236847
 20
70.0448091672
 30
0.0
 40
0.2999999999999944
100
AcDbArc
 50
225.0
 51
0.0
  0
LINE
  5
306
330
1F
100
AcDbEntity
  8
0
  6
Continuous
 62
     7
370
    25
100
AcDbLine
 10
73.0089916503
 20
69.8326771328
 30
0.0
 11
72.5705634408
 21
70.2711053424
 31
0.0
  0
LINE
  5
307
330
1F
100
AcDbEntity
  8
0
  6
Continuous
 62
     7
370
    25
100
AcDbLine
 10
72.5705634408
 20
70.2711053424
 30
0.0
 11
71.5113624488
 21
69.6921987421
 31
0.0
  0
ARC
  5
308
330
1F
100
AcDbEntity
  8
0
  6
Continuous
 62
     7
370
    25
100
AcDbCircle
 10
67.5626526636
 20
67.5340302981
 30
0.0
 40
4.500000000000015
100
AcDbArc
 50
331.3411772335
 51
28.6588227665
  0
LINE
  5
309
330
1F
100
AcDbEntity
  8
0
  6
Continuous
 62
     7
370
    25
100
AcDbLine
 10
71.5113624488
 20
65.375861854
 30
0.0
 11
72.5705634408
 21
64.7969552538
 31
0.0
  0
LINE
  5
30A
330
1F
100
AcDbEntity
  8
0
  6
Continuous
 62
     7
370
    25
100
AcDbLine
 10
72.5705634408
 20
64.7969552538
 30
0.0
 11
73.0089916503
 21
65.2353834633
 31
0.0
  0
ARC
  5
30B
330
1F
100
AcDbEntity
  8
0
  6
Continuous
 62
     7
370
    25
100
AcDbCircle
 10
73.2211236847
 20
65.023251429
 30
0.0
 40
0.3000000000000044
100
AcDbArc
 50
0.0
 51
135.0
  0
LINE
  5
30C
330
1F
100
AcDbEntity
  8
0
  6
Continuous
 62
     7
370
    25
100
AcDbLine
 10
73.5211236847
 20
65.023251429
 30
0.0
 11
73.5211236847
 21
62.7105657084
 31
0.0
  0
LINE
  5
30D
330
1F
100
AcDbEntity
  8
0
  6
Continuous
 62
     7
370
    25
100
AcDbLine
 10
73.5211236847
 20
62.7105657084
 30
0.0
 11
72.3861172533
 21
61.5755592771
 31
0.0
  0
LINE
  5
30E
330
1F
100
AcDbEntity
  8
0
  6
Continuous
 62
     7
370
    25
100
AcDbLine
 10
72.3861172533
 20
61.5755592771
 30
0.0
 11
70.0734315328
 21
61.5755592771
 31
0.0
  0
ARC
  5
30F
330
1F
100
AcDbEntity
  8
0
  6
Continuous
 62
     7
370
    25
100
AcDbCircle
 10
70.0734315328
 20
61.8755592771
 30
0.0
 40
0.2999999999999893
100
AcDbArc
 50
135.0
 51
270.0
  0
LINE
  5
310
330
1F
100
AcDbEntity
  8
0
  6
Continuous
 62
     7
370
    25
100
AcDbLine
 10
69.8612994984
 20
62.0876913114
 30
0.0
 11
70.2997277079
 21
62.5261195209
 31
0.0
  0
LINE
  5
311
330
1F
100
AcDbEntity
  8
0
  6
Continuous
 62
     7
370
    25
100
AcDbLine
 10
70.2997277079
 20
62.5261195209
 30
0.0
 11
69.7208211077
 21
63.585320513
 31
0.0
  0
ARC
  5
312
330
1F
100
AcDbEntity
  8
0
  6
Continuous
 62
     7
370
    25
100
AcDbCircle
 10
67.5626526636
 20
67.5340302981
 30
0.0
 40
4.500000000000002
100
AcDbArc
 50
241.3411772335
 51
298.6588227665
  0
LINE
  5
313
330
1F
100
AcDbEntity
  8
0
  6
Continuous
 62
     7
370
    25
100
AcDbLine
 10
65.4044842196
 20
63.585320513
 30
0.0
 11
64.8255776194
 21
62.5261195209
 31
0.0
  0
LINE
  5
314
330
1F
100
AcDbEntity
  8
0
  6
Continuous
 62
     7
370
    25
100
AcDbLine
 10
64.8255776194
 20
62.5261195209
 30
0.0
 11
65.2640058289
 21
62.0876913114
 31
0.0
  0
ARC
  5
315
330
1F
100
AcDbEntity
  8
0
  6
Continuous
 62
     7
370
    25
100
AcDbCircle
 10
65.0518737945
 20
61.8755592771
 30
0.0
 40
0.3000000000000095
100
AcDbArc
 50
270.0
 51
45.0
  0
LINE
  5
316
330
1F
100
AcDbEntity
  8
0
  6
Continuous
 62
     7
370
    25
100
AcDbLine
 10
65.0518737945
 20
61.5755592771
 30
0.0
 11
62.739188074
 21
61.5755592771
 31
0.0
  0
LINE
  5
317
330
1F
100
AcDbEntity
  8
0
  6
Continuous
 62
     7
370
    25
100
AcDbLine
 10
62.739188074
 20
61.5755592771
 30
0.0
 11
61.6041816426
 21
62.7105657084
 31
0.0
  0
LINE
  5
318
330
1F
100
AcDbEntity
  8
0
  6
Continuous
 62
     7
370
    25
100
AcDbLine
 10
61.6041816426
 20
62.7105657084
 30
0.0
 11
61.6041816426
 21
65.023251429
 31
0.0
  0
ARC
  5
319
330
1F
100
AcDbEntity
  8
0
  6
Continuous
 62
     7
370
    25
100
AcDbCircle
 10
61.9041816426
 20
65.023251429
 30
0.0
 40
0.2999999999999843
100
AcDbArc
 50
45.0
 51
180.0
  0
LINE
  5
31A
330
1F
100
AcDbEntity
  8
0
  6
Continuous
 62
     7
370
    25
100
AcDbLine
 10
62.116313677
 20
65.2353834633
 30
0.0
 11
62.5547418865
 21
64.7969552538
 31
0.0
  0
LINE
  5
31B
330
1F
100
AcDbEntity
  8
0
  6
Continuous
 62
     7
370
    25
100
AcDbLine
 10
62.5547418865
 20
64.7969552538
 30
0.0
 11
63.6139428785
 21
65.375861854
 31
0.0
  0
ARC
  5
31C
330
1F
100
AcDbEntity
  8
0
  6
Continuous
 62
     7
370
    25
100
AcDbCircle
 10
67.5626526636
 20
67.5340302981
 30
0.0
 40
4.500000000000001
100
AcDbArc
 50
151.3411772335
 51
208.6588227665
  0
LINE
  5
31D
330
1F
100
AcDbEntity
  8
0
  6
Continuous
 62
     7
370
    25
100
AcDbLine
 10
36.9290668068
 20
86.3489980435
 30
0.0
 11
53.1962385205
 21
86.3489980435
 31
0.0
  0
ARC
  5
31E
330
1F
100
AcDbEntity
  8
0
  6
Continuous
 62
     7
370
    25
100
AcDbCircle
 10
53.1962385205
 20
85.1592993205
 30
0.0
 40
1.189698722986819
100
AcDbArc
 50
0.0
 51
90.0
  0
LINE
  5
31F
330
1F
100
AcDbEntity
  8
0
  6
Continuous
 62
     7
370
    25
100
AcDbLine
 10
54.3859372435
 20
85.1592993205
 30
0.0
 11
54.3859372435
 21
79.0091269076
 31
0.0
  0
LINE
  5
320
330
1F
100
AcDbEntity
  8
0
  6
Continuous
 62
     7
370
    25
100
AcDbLine
 10
54.3859372435
 20
79.0091269076
 30
0.0
 11
55.8982149224
 21
77.4069512166
 31
0.0
  0
ARC
  5
321
330
1F
100
AcDbEntity
  8
0
  6
Continuous
 62
     7
370
    25
100
AcDbCircle
 10
55.1663917205
 20
76.7161905844
 30
0.0
 40
1.006337642081511
100
AcDbArc
 50
270.0
 51
43.3466289986
  0
LINE
  5
322
330
1F
100
AcDbEntity
  8
0
  6
Continuous
 62
     7
370
    25
100
AcDbLine
 10
55.1663917205
 20
75.7098529423
 30
0.0
 11
34.9589136068
 21
75.7098529423
 31
0.0
  0
ARC
  5
323
330
1F
100
AcDbEntity
  8
0
  6
Continuous
 62
     7
370
    25
100
AcDbCircle
 10
34.9589136068
 20
76.7161905844
 30
0.0
 40
1.00633764208142
100
AcDbArc
 50
136.6533710014
 51
270.0
  0
LINE
  5
324
330
1F
100
AcDbEntity
  8
0
  6
Continuous
 62
     7
370
    25
100
AcDbLine
 10
34.2270904049
 20
77.4069512166
 30
0.0
 11
35.7393680838
 21
79.0091269076
 31
0.0
  0
LINE
  5
325
330
1F
100
AcDbEntity
  8
0
  6
Continuous
 62
     7
370
    25
100
AcDbLine
 10
35.7393680838
 20
79.0091269076
 30
0.0
 11
35.7393680838
 21
85.1592993205
 31
0.0
  0
ARC
  5
326
330
1F
100
AcDbEntity
  8
0
  6
Continuous
 62
     7
370
    25
100
AcDbCircle
 10
36.9290668068
 20
85.1592993205
 30
0.0
 40
1.189698722986819
100
AcDbArc
 50
90.0
 51
180.0
  0
LINE
  5
327
330
1F
100
AcDbEntity
  8
0
  6
Continuous
 62
     7
370
    25
100
AcDbLine
 10
4.3611810259
 20
80.918345098
 30
0.0
 11
3.8754241352
 21
80.4325882073
 31
0.0
  0
ARC
  5
328
330
1F
100
AcDbEntity
  8
0
  6
Continuous
 62
     7
370
    25
100
AcDbCircle
 10
3.1683173541
 20
81.1396949885
 30
0.0
 40
1.000000000000004
100
AcDbArc
 50
135.0
 51
315.0
  0
LINE
  5
329
330
1F
100
AcDbEntity
  8
0
  6
Continuous
 62
     7
370
    25
100
AcDbLine
 10
2.4612105729
 20
81.8468017697
 30
0.0
 11
2.9469674636
 21
82.3325586604
 31
0.0
  0
ARC
  5
32A
330
1F
100
AcDbEntity
  8
0
  6
Continuous
 62
     7
370
    25
100
AcDbCircle
 10
6.0626526636
 20
84.0340302981
 30
0.0
 40
3.550000000000006
100
AcDbArc
 50
151.361103524
 51
208.638896476
  0
LINE
  5
32B
330
1F
100
AcDbEntity
  8
0
  6
Continuous
 62
     7
370
    25
100
AcDbLine
 10
2.9469674636
 20
85.7355019358
 30
0.0
 11
2.4612105729
 21
86.2212588265
 31
0.0
  0
ARC
  5
32C
330
1F
100
AcDbEntity
  8
0
  6
Continuous
 62
     7
370
    25
100
AcDbCircle
 10
3.1683173541
 20
86.9283656077
 30
0.0
 40
1.000000000000005
100
AcDbArc
 50
45.0
 51
225.0
  0
LINE
  5
32D
330
1F
100
AcDbEntity
  8
0
  6
Continuous
 62
     7
370
    25
100
AcDbLine
 10
3.8754241352
 20
87.6354723889
 30
0.0
 11
4.3611810259
 21
87.1497154982
 31
0.0
  0
ARC
  5
32E
330
1F
100
AcDbEntity
  8
0
  6
Continuous
 62
     7
370
    25
100
AcDbCircle
 10
6.0626526636
 20
84.0340302981
 30
0.0
 40
3.549999999999998
100
AcDbArc
 50
61.361103524
 51
118.638896476
  0
LINE
  5
32F
330
1F
100
AcDbEntity
  8
0
  6
Continuous
 62
     7
370
    25
100
AcDbLine
 10
7.7641243014
 20
87.1497154982
 30
0.0
 11
8.2498811921
 21
87.6354723889
 31
0.0
  0
ARC
  5
330
330
1F
100
AcDbEntity
  8
0
  6
Continuous
 62
     7
370
    25
100
AcDbCircle
 10
8.9569879732
 20
86.9283656077
 30
0.0
 40
1.000000000000004
100
AcDbArc
 50
315.0
 51
135.0
  0
LINE
  5
331
330
1F
100
AcDbEntity
  8
0
  6
Continuous
 62
     7
370
    25
100
AcDbLine
 10
9.6640947544
 20
86.2212588265
 30
0.0
 11
9.1783378637
 21
85.7355019358
 31
0.0
  0
ARC
  5
332
330
1F
100
AcDbEntity
  8
0
  6
Continuous
 62
     7
370
    25
100
AcDbCircle
 10
6.0626526636
 20
84.0340302981
 30
0.0
 40
3.55
100
AcDbArc
 50
331.361103524
 51
28.638896476
  0
LINE
  5
333
330
1F
100
AcDbEntity
  8
0
  6
Continuous
 62
     7
370
    25
100
AcDbLine
 10
9.1783378637
 20
82.3325586604
 30
0.0
 11
9.6640947544
 21
81.8468017697
 31
0.0
  0
ARC
  5
334
330
1F
100
AcDbEntity
  8
0
  6
Continuous
 62
     7
370
    25
100
AcDbCircle
 10
8.9569879732
 20
81.1396949885
 30
0.0
 40
1.000000000000003
100
AcDbArc
 50
225.0
 51
45.0
  0
LINE
  5
335
330
1F
100
AcDbEntity
  8
0
  6
Continuous
 62
     7
370
    25
100
AcDbLine
 10
8.2498811921
 20
80.4325882073
 30
0.0
 11
7.7641243014
 21
80.918345098
 31
0.0
  0
ARC
  5
336
330
1F
100
AcDbEntity
  8
0
  6
Continuous
 62
     7
370
    25
100
AcDbCircle
 10
6.0626526636
 20
84.0340302981
 30
0.0
 40
3.549999999999998
100
AcDbArc
 50
241.361103524
 51
298.638896476
  0
LINE
  5
337
330
1F
100
AcDbEntity
  8
0
  6
Continuous
 62
     7
370
    25
100
AcDbLine
 10
20.4044842196
 20
63.585320513
 30
0.0
 11
19.8255776194
 21
62.5261195209
 31
0.0
  0
LINE
  5
338
330
1F
100
AcDbEntity
  8
0
  6
Continuous
 62
     7
370
    25
100
AcDbLine
 10
19.8255776194
 20
62.5261195209
 30
0.0
 11
20.2640058289
 21
62.0876913114
 31
0.0
  0
ARC
  5
339
330
1F
100
AcDbEntity
  8
0
  6
Continuous
 62
     7
370
    25
100
AcDbCircle
 10
20.0518737945
 20
61.8755592771
 30
0.0
 40
0.2999999999999944
100
AcDbArc
 50
270.0
 51
45.0
  0
LINE
  5
33A
330
1F
100
AcDbEntity
  8
0
  6
Continuous
 62
     7
370
    25
100
AcDbLine
 10
20.0518737945
 20
61.5755592771
 30
0.0
 11
17.739188074
 21
61.5755592771
 31
0.0
  0
LINE
  5
33B
330
1F
100
AcDbEntity
  8
0
  6
Continuous
 62
     7
370
    25
100
AcDbLine
 10
17.739188074
 20
61.5755592771
 30
0.0
 11
16.6041816426
 21
62.7105657084
 31
0.0
  0
LINE
  5
33C
330
1F
100
AcDbEntity
  8
0
  6
Continuous
 62
     7
370
    25
100
AcDbLine
 10
16.6041816426
 20
62.7105657084
 30
0.0
 11
16.6041816426
 21
65.023251429
 31
0.0
  0
ARC
  5
33D
330
1F
100
AcDbEntity
  8
0
  6
Continuous
 62
     7
370
    25
100
AcDbCircle
 10
16.9041816426
 20
65.023251429
 30
0.0
 40
0.3000000000000044
100
AcDbArc
 50
45.0
 51
180.0
  0
LINE
  5
33E
330
1F
100
AcDbEntity
  8
0
  6
Continuous
 62
     7
370
    25
100
AcDbLine
 10
17.116313677
 20
65.2353834633
 30
0.0
 11
17.5547418865
 21
64.7969552538
 31
0.0
  0
LINE
  5
33F
330
1F
100
AcDbEntity
  8
0
  6
Continuous
 62
     7
370
    25
100
AcDbLine
 10
17.5547418865
 20
64.7969552538
 30
0.0
 11
18.6139428785
 21
65.375861854
 31
0.0
  0
ARC
  5
340
330
1F
100
AcDbEntity
  8
0
  6
Continuous
 62
     7
370
    25
100
AcDbCircle
 10
22.5626526636
 20
67.5340302981
 30
0.0
 40
4.500000000000009
100
AcDbArc
 50
151.3411772335
 51
208.6588227665
  0
LINE
  5
341
330
1F
100
AcDbEntity
  8
0
  6
Continuous
 62
     7
370
    25
100
AcDbLine
 10
18.6139428785
 20
69.6921987421
 30
0.0
 11
17.5547418865
 21
70.2711053424
 31
0.0
  0
LINE
  5
342
330
1F
100
AcDbEntity
  8
0
  6
Continuous
 62
     7
370
    25
100
AcDbLine
 10
17.5547418865
 20
70.2711053424
 30
0.0
 11
17.116313677
 21
69.8326771328
 31
0.0
  0
ARC
  5
343
330
1F
100
AcDbEntity
  8
0
  6
Continuous
 62
     7
370
    25
100
AcDbCircle
 10
16.9041816426
 20
70.0448091672
 30
0.0
 40
0.2999999999999944
100
AcDbArc
 50
180.0
 51
315.0
  0
LINE
  5
344
330
1F
100
AcDbEntity
  8
0
  6
Continuous
 62
     7
370
    25
100
AcDbLine
 10
16.6041816426
 20
70.0448091672
 30
0.0
 11
16.6041816426
 21
72.3574948878
 31
0.0
  0
LINE
  5
345
330
1F
100
AcDbEntity
  8
0
  6
Continuous
 62
     7
370
    25
100
AcDbLine
 10
16.6041816426
 20
72.3574948878
 30
0.0
 11
17.739188074
 21
73.4925013191
 31
0.0
  0
LINE
  5
346
330
1F
100
AcDbEntity
  8
0
  6
Continuous
 62
     7
370
    25
100
AcDbLine
 10
17.739188074
 20
73.4925013191
 30
0.0
 11
20.0518737945
 21
73.4925013191
 31
0.0
  0
ARC
  5
347
330
1F
100
AcDbEntity
  8
0
  6
Continuous
 62
     7
370
    25
100
AcDbCircle
 10
20.0518737945
 20
73.1925013191
 30
0.0
 40
0.3000000000000195
100
AcDbArc
 50
315.0
 51
90.0
  0
LINE
  5
348
330
1F
100
AcDbEntity
  8
0
  6
Continuous
 62
     7
370
    25
100
AcDbLine
 10
20.2640058289
 20
72.9803692848
 30
0.0
 11
19.8255776194
 21
72.5419410753
 31
0.0
  0
LINE
  5
349
330
1F
100
AcDbEntity
  8
0
  6
Continuous
 62
     7
370
    25
100
AcDbLine
 10
19.8255776194
 20
72.5419410753
 30
0.0
 11
20.4044842196
 21
71.4827400832
 31
0.0
  0
ARC
  5
34A
330
1F
100
AcDbEntity
  8
0
  6
Continuous
 62
     7
370
    25
100
AcDbCircle
 10
22.5626526636
 20
67.5340302981
 30
0.0
 40
4.500000000000008
100
AcDbArc
 50
61.3411772335
 51
118.6588227665
  0
LINE
  5
34B
330
1F
100
AcDbEntity
  8
0
  6
Continuous
 62
     7
370
    25
100
AcDbLine
 10
24.7208211077
 20
71.4827400832
 30
0.0
 11
25.2997277079
 21
72.5419410753
 31
0.0
  0
LINE
  5
34C
330
1F
100
AcDbEntity
  8
0
  6
Continuous
 62
     7
370
    25
100
AcDbLine
 10
25.2997277079
 20
72.5419410753
 30
0.0
 11
24.8612994984
 21
72.9803692848
 31
0.0
  0
ARC
  5
34D
330
1F
100
AcDbEntity
  8
0
  6
Continuous
 62
     7
370
    25
100
AcDbCircle
 10
25.0734315328
 20
73.1925013191
 30
0.0
 40
0.2999999999999944
100
AcDbArc
 50
90.0
 51
225.0
  0
LINE
  5
34E
330
1F
100
AcDbEntity
  8
0
  6
Continuous
 62
     7
370
    25
100
AcDbLine
 10
25.0734315328
 20
73.4925013191
 30
0.0
 11
27.3861172533
 21
73.4925013191
 31
0.0
  0
LINE
  5
34F
330
1F
100
AcDbEntity
  8
0
  6
Continuous
 62
     7
370
    25
100
AcDbLine
 10
27.3861172533
 20
73.4925013191
 30
0.0
 11
28.5211236847
 21
72.3574948878
 31
0.0
  0
LINE
  5
350
330
1F
100
AcDbEntity
  8
0
  6
Continuous
 62
     7
370
    25
100
AcDbLine
 10
28.5211236847
 20
72.3574948878
 30
0.0
 11
28.5211236847
 21
70.0448091672
 31
0.0
  0
ARC
  5
351
330
1F
100
AcDbEntity
  8
0
  6
Continuous
 62
     7
370
    25
100
AcDbCircle
 10
28.2211236847
 20
70.0448091672
 30
0.0
 40
0.3000000000000019
100
AcDbArc
 50
225.0
 51
0.0
  0
LINE
  5
352
330
1F
100
AcDbEntity
  8
0
  6
Continuous
 62
     7
370
    25
100
AcDbLine
 10
28.0089916503
 20
69.8326771328
 30
0.0
 11
27.5705634408
 21
70.2711053424
 31
0.0
  0
LINE
  5
353
330
1F
100
AcDbEntity
  8
0
  6
Continuous
 62
     7
370
    25
100
AcDbLine
 10
27.5705634408
 20
70.2711053424
 30
0.0
 11
26.5113624488
 21
69.6921987421
 31
0.0
  0
ARC
  5
354
330
1F
100
AcDbEntity
  8
0
  6
Continuous
 62
     7
370
    25
100
AcDbCircle
 10
22.5626526636
 20
67.5340302981
 30
0.0
 40
4.499999999999999
100
AcDbArc
 50
331.3411772335
 51
28.6588227665
  0
LINE
  5
355
330
1F
100
AcDbEntity
  8
0
  6
Continuous
 62
     7
370
    25
100
AcDbLine
 10
26.5113624488
 20
65.375861854
 30
0.0
 11
27.5705634408
 21
64.7969552538
 31
0.0
  0
LINE
  5
356
330
1F
100
AcDbEntity
  8
0
  6
Continuous
 62
     7
370
    25
100
AcDbLine
 10
27.5705634408
 20
64.7969552538
 30
0.0
 11
28.0089916503
 21
65.2353834633
 31
0.0
  0
ARC
  5
357
330
1F
100
AcDbEntity
  8
0
  6
Continuous
 62
     7
370
    25
100
AcDbCircle
 10
28.2211236847
 20
65.023251429
 30
0.0
 40
0.2999999999999843
100
AcDbArc
 50
0.0
 51
135.0
  0
LINE
  5
358
330
1F
100
AcDbEntity
  8
0
  6
Continuous
 62
     7
370
    25
100
AcDbLine
 10
28.5211236847
 20
65.023251429
 30
0.0
 11
28.5211236847
 21
62.7105657084
 31
0.0
  0
LINE
  5
359
330
1F
100
AcDbEntity
  8
0
  6
Continuous
 62
     7
370
    25
100
AcDbLine
 10
28.5211236847
 20
62.7105657084
 30
0.0
 11
27.3861172533
 21
61.5755592771
 31
0.0
  0
LINE
  5
35A
330
1F
100
AcDbEntity
  8
0
  6
Continuous
 62
     7
370
    25
100
AcDbLine
 10
27.3861172533
 20
61.5755592771
 30
0.0
 11
25.0734315328
 21
61.5755592771
 31
0.0
  0
ARC
  5
35B
330
1F
100
AcDbEntity
  8
0
  6
Continuous
 62
     7
370
    25
100
AcDbCircle
 10
25.0734315328
 20
61.8755592771
 30
0.0
 40
0.3000000000000044
100
AcDbArc
 50
135.0
 51
270.0
  0
LINE
  5
35C
330
1F
100
AcDbEntity
  8
0
  6
Continuous
 62
     7
370
    25
100
AcDbLine
 10
24.8612994984
 20
62.0876913114
 30
0.0
 11
25.2997277079
 21
62.5261195209
 31
0.0
  0
LINE
  5
35D
330
1F
100
AcDbEntity
  8
0
  6
Continuous
 62
     7
370
    25
100
AcDbLine
 10
25.2997277079
 20
62.5261195209
 30
0.0
 11
24.7208211077
 21
63.585320513
 31
0.0
  0
ARC
  5
35E
330
1F
100
AcDbEntity
  8
0
  6
Continuous
 62
     7
370
    25
100
AcDbCircle
 10
22.5626526636
 20
67.5340302981
 30
0.0
 40
4.499999999999998
100
AcDbArc
 50
241.3411772335
 51
298.6588227665
  0
LINE
  5
35F
330
1F
100
AcDbEntity
  8
0
  6
Continuous
 62
     7
370
    25
100
AcDbLine
 10
79.9589136068
 20
75.7098529423
 30
0.0
 11
100.2583642096
 21
75.7098529423
 31
0.0
  0
ARC
  5
360
330
1F
100
AcDbEntity
  8
0
  6
Continuous
 62
     7
370
    25
100
AcDbCircle
 10
79.9589136068
 20
76.7161905844
 30
0.0
 40
1.006337642081425
100
AcDbArc
 50
136.6533710014
 51
270.0
  0
LINE
  5
361
330
1F
100
AcDbEntity
  8
0
  6
Continuous
 62
     7
370
    25
100
AcDbLine
 10
80.7393680838
 20
79.0091269076
 30
0.0
 11
79.2270904049
 21
77.4069512166
 31
0.0
  0
LINE
  5
362
330
1F
100
AcDbEntity
  8
0
  6
Continuous
 62
     7
370
    25
100
AcDbLine
 10
80.7393680838
 20
85.1592993205
 30
0.0
 11
80.7393680838
 21
79.0091269076
 31
0.0
  0
ARC
  5
363
330
1F
100
AcDbEntity
  8
0
  6
Continuous
 62
     7
370
    25
100
AcDbCircle
 10
81.9290668068
 20
85.1592993205
 30
0.0
 40
1.189698722986819
100
AcDbArc
 50
90.0
 51
180.0
  0
LINE
  5
364
330
1F
100
AcDbEntity
  8
0
  6
Continuous
 62
     7
370
    25
100
AcDbLine
 10
98.2882110095
 20
86.3489980435
 30
0.0
 11
81.9290668068
 21
86.3489980435
 31
0.0
  0
ARC
  5
365
330
1F
100
AcDbEntity
  8
0
  6
Continuous
 62
     7
370
    25
100
AcDbCircle
 10
98.2882110095
 20
85.1592993205
 30
0.0
 40
1.189698722986819
100
AcDbArc
 50
0.0
 51
90.0
  0
LINE
  5
366
330
1F
100
AcDbEntity
  8
0
  6
Continuous
 62
     7
370
    25
100
AcDbLine
 10
99.4779097325
 20
85.1592993205
 30
0.0
 11
99.4779097325
 21
79.0091269076
 31
0.0
  0
LINE
  5
367
330
1F
100
AcDbEntity
  8
0
  6
Continuous
 62
     7
370
    25
100
AcDbLine
 10
99.4779097325
 20
79.0091269076
 30
0.0
 11
100.9901874115
 21
77.4069512166
 31
0.0
  0
ARC
  5
368
330
1F
100
AcDbEntity
  8
0
  6
Continuous
 62
     7
370
    25
100
AcDbCircle
 10
100.2583642096
 20
76.7161905844
 30
0.0
 40
1.006337642081425
100
AcDbArc
 50
270.0
 51
43.3466289986
  0
LINE
  5
369
330
1F
100
AcDbEntity
  8
0
  6
Continuous
 62
     7
370
    25
100
AcDbLine
 10
116.6033349378
 20
69.6921987421
 30
0.0
 11
117.6625359299
 21
70.2711053424
 31
0.0
  0
ARC
  5
36A
330
1F
100
AcDbEntity
  8
0
  6
Continuous
 62
     7
370
    25
100
AcDbCircle
 10
112.6546251527
 20
67.5340302981
 30
0.0
 40
4.500000000000001
100
AcDbArc
 50
331.3411772335
 51
28.6588227665
  0
LINE
  5
36B
330
1F
100
AcDbEntity
  8
0
  6
Continuous
 62
     7
370
    25
100
AcDbLine
 10
117.6625359299
 20
64.7969552538
 30
0.0
 11
116.6033349378
 21
65.375861854
 31
0.0
  0
LINE
  5
36C
330
1F
100
AcDbEntity
  8
0
  6
Continuous
 62
     7
370
    25
100
AcDbLine
 10
118.1009641394
 20
65.2353834633
 30
0.0
 11
117.6625359299
 21
64.7969552538
 31
0.0
  0
ARC
  5
36D
330
1F
100
AcDbEntity
  8
0
  6
Continuous
 62
     7
370
    25
100
AcDbCircle
 10
118.3130961737
 20
65.023251429
 30
0.0
 40
0.2999999999999843
100
AcDbArc
 50
0.0
 51
135.0
  0
LINE
  5
36E
330
1F
100
AcDbEntity
  8
0
  6
Continuous
 62
     7
370
    25
100
AcDbLine
 10
118.6130961737
 20
62.7105657084
 30
0.0
 11
118.6130961737
 21
65.023251429
 31
0.0
  0
LINE
  5
36F
330
1F
100
AcDbEntity
  8
0
  6
Continuous
 62
     7
370
    25
100
AcDbLine
 10
117.4780897424
 20
61.5755592771
 30
0.0
 11
118.6130961737
 21
62.7105657084
 31
0.0
  0
LINE
  5
370
330
1F
100
AcDbEntity
  8
0
  6
Continuous
 62
     7
370
    25
100
AcDbLine
 10
115.1654040218
 20
61.5755592771
 30
0.0
 11
117.4780897424
 21
61.5755592771
 31
0.0
  0
ARC
  5
371
330
1F
100
AcDbEntity
  8
0
  6
Continuous
 62
     7
370
    25
100
AcDbCircle
 10
115.1654040218
 20
61.8755592771
 30
0.0
 40
0.2999999999999994
100
AcDbArc
 50
135.0
 51
270.0
  0
LINE
  5
372
330
1F
100
AcDbEntity
  8
0
  6
Continuous
 62
     7
370
    25
100
AcDbLine
 10
115.3917001969
 20
62.5261195209
 30
0.0
 11
114.9532719874
 21
62.0876913114
 31
0.0
  0
LINE
  5
373
330
1F
100
AcDbEntity
  8
0
  6
Continuous
 62
     7
370
    25
100
AcDbLine
 10
114.8127935967
 20
63.585320513
 30
0.0
 11
115.3917001969
 21
62.5261195209
 31
0.0
  0
ARC
  5
374
330
1F
100
AcDbEntity
  8
0
  6
Continuous
 62
     7
370
    25
100
AcDbCircle
 10
112.6546251527
 20
67.5340302981
 30
0.0
 40
4.500000000000002
100
AcDbArc
 50
241.3411772335
 51
298.6588227665
  0
LINE
  5
375
330
1F
100
AcDbEntity
  8
0
  6
Continuous
 62
     7
370
    25
100
AcDbLine
 10
109.9175501084
 20
62.5261195209
 30
0.0
 11
110.4964567086
 21
63.585320513
 31
0.0
  0
LINE
  5
376
330
1F
100
AcDbEntity
  8
0
  6
Continuous
 62
     7
370
    25
100
AcDbLine
 10
110.3559783179
 20
62.0876913114
 30
0.0
 11
109.9175501084
 21
62.5261195209
 31
0.0
  0
ARC
  5
377
330
1F
100
AcDbEntity
  8
0
  6
Continuous
 62
     7
370
    25
100
AcDbCircle
 10
110.1438462836
 20
61.8755592771
 30
0.0
 40
0.2999999999999893
100
AcDbArc
 50
270.0
 51
45.0
  0
LINE
  5
378
330
1F
100
AcDbEntity
  8
0
  6
Continuous
 62
     7
370
    25
100
AcDbLine
 10
107.831160563
 20
61.5755592771
 30
0.0
 11
110.1438462836
 21
61.5755592771
 31
0.0
  0
LINE
  5
379
330
1F
100
AcDbEntity
  8
0
  6
Continuous
 62
     7
370
    25
100
AcDbLine
 10
106.6961541316
 20
62.7105657084
 30
0.0
 11
107.831160563
 21
61.5755592771
 31
0.0
  0
LINE
  5
37A
330
1F
100
AcDbEntity
  8
0
  6
Continuous
 62
     7
370
    25
100
AcDbLine
 10
106.6961541316
 20
65.023251429
 30
0.0
 11
106.6961541316
 21
62.7105657084
 31
0.0
  0
ARC
  5
37B
330
1F
100
AcDbEntity
  8
0
  6
Continuous
 62
     7
370
    25
100
AcDbCircle
 10
106.9961541316
 20
65.023251429
 30
0.0
 40
0.3000000000000044
100
AcDbArc
 50
45.0
 51
180.0
  0
LINE
  5
37C
330
1F
100
AcDbEntity
  8
0
  6
Continuous
 62
     7
370
    25
100
AcDbLine
 10
107.6467143755
 20
64.7969552538
 30
0.0
 11
107.208286166
 21
65.2353834633
 31
0.0
  0
LINE
  5
37D
330
1F
100
AcDbEntity
  8
0
  6
Continuous
 62
     7
370
    25
100
AcDbLine
 10
108.7059153676
 20
65.375861854
 30
0.0
 11
107.6467143755
 21
64.7969552538
 31
0.0
  0
ARC
  5
37E
330
1F
100
AcDbEntity
  8
0
  6
Continuous
 62
     7
370
    25
100
AcDbCircle
 10
112.6546251527
 20
67.5340302981
 30
0.0
 40
4.500000000000015
100
AcDbArc
 50
151.3411772335
 51
208.6588227665
  0
LINE
  5
37F
330
1F
100
AcDbEntity
  8
0
  6
Continuous
 62
     7
370
    25
100
AcDbLine
 10
107.6467143755
 20
70.2711053424
 30
0.0
 11
108.7059153676
 21
69.6921987421
 31
0.0
  0
LINE
  5
380
330
1F
100
AcDbEntity
  8
0
  6
Continuous
 62
     7
370
    25
100
AcDbLine
 10
107.208286166
 20
69.8326771328
 30
0.0
 11
107.6467143755
 21
70.2711053424
 31
0.0
  0
ARC
  5
381
330
1F
100
AcDbEntity
  8
0
  6
Continuous
 62
     7
370
    25
100
AcDbCircle
 10
106.9961541316
 20
70.0448091672
 30
0.0
 40
0.2999999999999944
100
AcDbArc
 50
180.0
 51
315.0
  0
LINE
  5
382
330
1F
100
AcDbEntity
  8
0
  6
Continuous
 62
     7
370
    25
100
AcDbLine
 10
106.6961541316
 20
72.3574948878
 30
0.0
 11
106.6961541316
 21
70.0448091672
 31
0.0
  0
LINE
  5
383
330
1F
100
AcDbEntity
  8
0
  6
Continuous
 62
     7
370
    25
100
AcDbLine
 10
107.831160563
 20
73.4925013191
 30
0.0
 11
106.6961541316
 21
72.3574948878
 31
0.0
  0
LINE
  5
384
330
1F
100
AcDbEntity
  8
0
  6
Continuous
 62
     7
370
    25
100
AcDbLine
 10
110.1438462836
 20
73.4925013191
 30
0.0
 11
107.831160563
 21
73.4925013191
 31
0.0
  0
ARC
  5
385
330
1F
100
AcDbEntity
  8
0
  6
Continuous
 62
     7
370
    25
100
AcDbCircle
 10
110.1438462836
 20
73.1925013191
 30
0.0
 40
0.3000000000000145
100
AcDbArc
 50
315.0
 51
90.0
  0
LINE
  5
386
330
1F
100
AcDbEntity
  8
0
  6
Continuous
 62
     7
370
    25
100
AcDbLine
 10
109.9175501084
 20
72.5419410753
 30
0.0
 11
110.3559783179
 21
72.9803692848
 31
0.0
  0
LINE
  5
387
330
1F
100
AcDbEntity
  8
0
  6
Continuous
 62
     7
370
    25
100
AcDbLine
 10
110.4964567086
 20
71.4827400832
 30
0.0
 11
109.9175501084
 21
72.5419410753
 31
0.0
  0
ARC
  5
388
330
1F
100
AcDbEntity
  8
0
  6
Continuous
 62
     7
370
    25
100
AcDbCircle
 10
112.6546251527
 20
67.5340302981
 30
0.0
 40
4.500000000000015
100
AcDbArc
 50
61.3411772335
 51
118.6588227665
  0
LINE
  5
389
330
1F
100
AcDbEntity
  8
0
  6
Continuous
 62
     7
370
    25
100
AcDbLine
 10
115.3917001969
 20
72.5419410753
 30
0.0
 11
114.8127935967
 21
71.4827400832
 31
0.0
  0
LINE
  5
38A
330
1F
100
AcDbEntity
  8
0
  6
Continuous
 62
     7
370
    25
100
AcDbLine
 10
114.9532719874
 20
72.9803692848
 30
0.0
 11
115.3917001969
 21
72.5419410753
 31
0.0
  0
ARC
  5
38B
330
1F
100
AcDbEntity
  8
0
  6
Continuous
 62
     7
370
    25
100
AcDbCircle
 10
115.1654040218
 20
73.1925013191
 30
0.0
 40
0.2999999999999944
100
AcDbArc
 50
90.0
 51
225.0
  0
LINE
  5
38C
330
1F
100
AcDbEntity
  8
0
  6
Continuous
 62
     7
370
    25
100
AcDbLine
 10
117.4780897424
 20
73.4925013191
 30
0.0
 11
115.1654040218
 21
73.4925013191
 31
0.0
  0
LINE
  5
38D
330
1F
100
AcDbEntity
  8
0
  6
Continuous
 62
     7
370
    25
100
AcDbLine
 10
118.6130961737
 20
72.3574948878
 30
0.0
 11
117.4780897424
 21
73.4925013191
 31
0.0
  0
LINE
  5
38E
330
1F
100
AcDbEntity
  8
0
  6
Continuous
 62
     7
370
    25
100
AcDbLine
 10
118.6130961737
 20
70.0448091672
 30
0.0
 11
118.6130961737
 21
72.3574948878
 31
0.0
  0
ARC
  5
38F
330
1F
100
AcDbEntity
  8
0
  6
Continuous
 62
     7
370
    25
100
AcDbCircle
 10
118.3130961737
 20
70.0448091672
 30
0.0
 40
0.3000000000000145
100
AcDbArc
 50
225.0
 51
0.0
  0
LINE
  5
390
330
1F
100
AcDbEntity
  8
0
  6
Continuous
 62
     7
370
    25
100
AcDbLine
 10
117.6625359299
 20
70.2711053424
 30
0.0
 11
118.1009641394
 21
69.8326771328
 31
0.0
  0
LINE
  5
391
330
1F
100
AcDbEntity
  8
0
  6
Continuous
 62
     7
370
    25
100
AcDbLine
 10
143.2882110095
 20
86.3489980435
 30
0.0
 11
127.0210392958
 21
86.3489980435
 31
0.0
  0
ARC
  5
392
330
1F
100
AcDbEntity
  8
0
  6
Continuous
 62
     7
370
    25
100
AcDbCircle
 10
143.2882110095
 20
85.1592993205
 30
0.0
 40
1.189698722986819
100
AcDbArc
 50
0.0
 51
90.0
  0
LINE
  5
393
330
1F
100
AcDbEntity
  8
0
  6
Continuous
 62
     7
370
    25
100
AcDbLine
 10
144.4779097325
 20
79.0091269076
 30
0.0
 11
144.4779097325
 21
85.1592993205
 31
0.0
  0
LINE
  5
394
330
1F
100
AcDbEntity
  8
0
  6
Continuous
 62
     7
370
    25
100
AcDbLine
 10
145.9901874115
 20
77.4069512166
 30
0.0
 11
144.4779097325
 21
79.0091269076
 31
0.0
  0
ARC
  5
395
330
1F
100
AcDbEntity
  8
0
  6
Continuous
 62
     7
370
    25
100
AcDbCircle
 10
145.2583642096
 20
76.7161905844
 30
0.0
 40
1.006337642081415
100
AcDbArc
 50
270.0
 51
43.3466289986
  0
LINE
  5
396
330
1F
100
AcDbEntity
  8
0
  6
Continuous
 62
     7
370
    25
100
AcDbLine
 10
125.0508860958
 20
75.7098529423
 30
0.0
 11
145.2583642096
 21
75.7098529423
 31
0.0
  0
ARC
  5
397
330
1F
100
AcDbEntity
  8
0
  6
Continuous
 62
     7
370
    25
100
AcDbCircle
 10
125.0508860958
 20
76.7161905844
 30
0.0
 40
1.006337642081526
100
AcDbArc
 50
136.6533710014
 51
270.0
  0
LINE
  5
398
330
1F
100
AcDbEntity
  8
0
  6
Continuous
 62
     7
370
    25
100
AcDbLine
 10
125.8313405729
 20
79.0091269076
 30
0.0
 11
124.3190628939
 21
77.4069512166
 31
0.0
  0
LINE
  5
399
330
1F
100
AcDbEntity
  8
0
  6
Continuous
 62
     7
370
    25
100
AcDbLine
 10
125.8313405729
 20
85.1592993205
 30
0.0
 11
125.8313405729
 21
79.0091269076
 31
0.0
  0
ARC
  5
39A
330
1F
100
AcDbEntity
  8
0
  6
Continuous
 62
     7
370
    25
100
AcDbCircle
 10
127.0210392958
 20
85.1592993205
 30
0.0
 40
1.189698722986819
100
AcDbArc
 50
90.0
 51
180.0
  0
LINE
  5
39B
330
1F
100
AcDbEntity
  8
0
  6
Continuous
 62
     7
370
    25
100
AcDbLine
 10
175.8560967904
 20
80.918345098
 30
0.0
 11
176.3418536811
 21
80.4325882073
 31
0.0
  0
ARC
  5
39C
330
1F
100
AcDbEntity
  8
0
  6
Continuous
 62
     7
370
    25
100
AcDbCircle
 10
174.1546251527
 20
84.0340302981
 30
0.0
 40
3.550000000000005
100
AcDbArc
 50
241.361103524
 51
298.638896476
  0
LINE
  5
39D
330
1F
100
AcDbEntity
  8
0
  6
Continuous
 62
     7
370
    25
100
AcDbLine
 10
171.9673966243
 20
80.4325882073
 30
0.0
 11
172.453153515
 21
80.918345098
 31
0.0
  0
ARC
  5
39E
330
1F
100
AcDbEntity
  8
0
  6
Continuous
 62
     7
370
    25
100
AcDbCircle
 10
171.2602898431
 20
81.1396949885
 30
0.0
 40
1.000000000000008
100
AcDbArc
 50
135.0
 51
315.0
  0
LINE
  5
39F
330
1F
100
AcDbEntity
  8
0
  6
Continuous
 62
     7
370
    25
100
AcDbLine
 10
171.0389399526
 20
82.3325586604
 30
0.0
 11
170.5531830619
 21
81.8468017697
 31
0.0
  0
ARC
  5
3A0
330
1F
100
AcDbEntity
  8
0
  6
Continuous
 62
     7
370
    25
100
AcDbCircle
 10
174.1546251527
 20
84.0340302981
 30
0.0
 40
3.549999999999998
100
AcDbArc
 50
151.361103524
 51
208.638896476
  0
LINE
  5
3A1
330
1F
100
AcDbEntity
  8
0
  6
Continuous
 62
     7
370
    25
100
AcDbLine
 10
170.5531830619
 20
86.2212588265
 30
0.0
 11
171.0389399526
 21
85.7355019358
 31
0.0
  0
ARC
  5
3A2
330
1F
100
AcDbEntity
  8
0
  6
Continuous
 62
     7
370
    25
100
AcDbCircle
 10
171.2602898431
 20
86.9283656077
 30
0.0
 40
1.000000000000008
100
AcDbArc
 50
45.0
 51
225.0
  0
LINE
  5
3A3
330
1F
100
AcDbEntity
  8
0
  6
Continuous
 62
     7
370
    25
100
AcDbLine
 10
172.453153515
 20
87.1497154982
 30
0.0
 11
171.9673966243
 21
87.6354723889
 31
0.0
  0
ARC
  5
3A4
330
1F
100
AcDbEntity
  8
0
  6
Continuous
 62
     7
370
    25
100
AcDbCircle
 10
174.1546251527
 20
84.0340302981
 30
0.0
 40
3.550000000000005
100
AcDbArc
 50
61.361103524
 51
118.638896476
  0
LINE
  5
3A5
330
1F
100
AcDbEntity
  8
0
  6
Continuous
 62
     7
370
    25
100
AcDbLine
 10
176.3418536811
 20
87.6354723889
 30
0.0
 11
175.8560967904
 21
87.1497154982
 31
0.0
  0
ARC
  5
3A6
330
1F
100
AcDbEntity
  8
0
  6
Continuous
 62
     7
370
    25
100
AcDbCircle
 10
177.0489604623
 20
86.9283656077
 30
0.0
 40
1.000000000000008
100
AcDbArc
 50
315.0
 51
135.0
  0
LINE
  5
3A7
330
1F
100
AcDbEntity
  8
0
  6
Continuous
 62
     7
370
    25
100
AcDbLine
 10
177.2703103528
 20
85.7355019358
 30
0.0
 11
177.7560672435
 21
86.2212588265
 31
0.0
  0
ARC
  5
3A8
330
1F
100
AcDbEntity
  8
0
  6
Continuous
 62
     7
370
    25
100
AcDbCircle
 10
174.1546251527
 20
84.0340302981
 30
0.0
 40
3.55000000000003
100
AcDbArc
 50
331.361103524
 51
28.638896476
  0
LINE
  5
3A9
330
1F
100
AcDbEntity
  8
0
  6
Continuous
 62
     7
370
    25
100
AcDbLine
 10
177.7560672435
 20
81.8468017697
 30
0.0
 11
177.2703103528
 21
82.3325586604
 31
0.0
  0
ARC
  5
3AA
330
1F
100
AcDbEntity
  8
0
  6
Continuous
 62
     7
370
    25
100
AcDbCircle
 10
177.0489604623
 20
81.1396949885
 30
0.0
 40
1.000000000000008
100
AcDbArc
 50
225.0
 51
45.0
  0
LINE
  5
3AB
330
1F
100
AcDbEntity
  8
0
  6
Continuous
 62
     7
370
    25
100
AcDbLine
 10
159.8127935967
 20
63.585320513
 30
0.0
 11
160.3917001969
 21
62.5261195209
 31
0.0
  0
ARC
  5
3AC
330
1F
100
AcDbEntity
  8
0
  6
Continuous
 62
     7
370
    25
100
AcDbCircle
 10
157.6546251527
 20
67.5340302981
 30
0.0
 40
4.499999999999996
100
AcDbArc
 50
241.3411772335
 51
298.6588227665
  0
LINE
  5
3AD
330
1F
100
AcDbEntity
  8
0
  6
Continuous
 62
     7
370
    25
100
AcDbLine
 10
154.9175501084
 20
62.5261195209
 30
0.0
 11
155.4964567086
 21
63.585320513
 31
0.0
  0
LINE
  5
3AE
330
1F
100
AcDbEntity
  8
0
  6
Continuous
 62
     7
370
    25
100
AcDbLine
 10
155.3559783179
 20
62.0876913114
 30
0.0
 11
154.9175501084
 21
62.5261195209
 31
0.0
  0
ARC
  5
3AF
330
1F
100
AcDbEntity
  8
0
  6
Continuous
 62
     7
370
    25
100
AcDbCircle
 10
155.1438462836
 20
61.8755592771
 30
0.0
 40
0.3000000000000095
100
AcDbArc
 50
270.0
 51
45.0
  0
LINE
  5
3B0
330
1F
100
AcDbEntity
  8
0
  6
Continuous
 62
     7
370
    25
100
AcDbLine
 10
152.831160563
 20
61.5755592771
 30
0.0
 11
155.1438462836
 21
61.5755592771
 31
0.0
  0
LINE
  5
3B1
330
1F
100
AcDbEntity
  8
0
  6
Continuous
 62
     7
370
    25
100
AcDbLine
 10
151.6961541316
 20
62.7105657084
 30
0.0
 11
152.831160563
 21
61.5755592771
 31
0.0
  0
LINE
  5
3B2
330
1F
100
AcDbEntity
  8
0
  6
Continuous
 62
     7
370
    25
100
AcDbLine
 10
151.6961541316
 20
65.023251429
 30
0.0
 11
151.6961541316
 21
62.7105657084
 31
0.0
  0
ARC
  5
3B3
330
1F
100
AcDbEntity
  8
0
  6
Continuous
 62
     7
370
    25
100
AcDbCircle
 10
151.9961541316
 20
65.023251429
 30
0.0
 40
0.2999999999999829
100
AcDbArc
 50
45.0
 51
180.0
  0
LINE
  5
3B4
330
1F
100
AcDbEntity
  8
0
  6
Continuous
 62
     7
370
    25
100
AcDbLine
 10
152.6467143755
 20
64.7969552538
 30
0.0
 11
152.208286166
 21
65.2353834633
 31
0.0
  0
LINE
  5
3B5
330
1F
100
AcDbEntity
  8
0
  6
Continuous
 62
     7
370
    25
100
AcDbLine
 10
153.7059153676
 20
65.375861854
 30
0.0
 11
152.6467143755
 21
64.7969552538
 31
0.0
  0
ARC
  5
3B6
330
1F
100
AcDbEntity
  8
0
  6
Continuous
 62
     7
370
    25
100
AcDbCircle
 10
157.6546251527
 20
67.5340302981
 30
0.0
 40
4.500000000000008
100
AcDbArc
 50
151.3411772335
 51
208.6588227665
  0
LINE
  5
3B7
330
1F
100
AcDbEntity
  8
0
  6
Continuous
 62
     7
370
    25
100
AcDbLine
 10
152.6467143755
 20
70.2711053424
 30
0.0
 11
153.7059153676
 21
69.6921987421
 31
0.0
  0
LINE
  5
3B8
330
1F
100
AcDbEntity
  8
0
  6
Continuous
 62
     7
370
    25
100
AcDbLine
 10
152.208286166
 20
69.8326771328
 30
0.0
 11
152.6467143755
 21
70.2711053424
 31
0.0
  0
ARC
  5
3B9
330
1F
100
AcDbEntity
  8
0
  6
Continuous
 62
     7
370
    25
100
AcDbCircle
 10
151.9961541316
 20
70.0448091672
 30
0.0
 40
0.3000000000000114
100
AcDbArc
 50
180.0
 51
315.0
  0
LINE
  5
3BA
330
1F
100
AcDbEntity
  8
0
  6
Continuous
 62
     7
370
    25
100
AcDbLine
 10
151.6961541316
 20
72.3574948878
 30
0.0
 11
151.6961541316
 21
70.0448091672
 31
0.0
  0
LINE
  5
3BB
330
1F
100
AcDbEntity
  8
0
  6
Continuous
 62
     7
370
    25
100
AcDbLine
 10
152.831160563
 20
73.4925013191
 30
0.0
 11
151.6961541316
 21
72.3574948878
 31
0.0
  0
LINE
  5
3BC
330
1F
100
AcDbEntity
  8
0
  6
Continuous
 62
     7
370
    25
100
AcDbLine
 10
155.1438462836
 20
73.4925013191
 30
0.0
 11
152.831160563
 21
73.4925013191
 31
0.0
  0
ARC
  5
3BD
330
1F
100
AcDbEntity
  8
0
  6
Continuous
 62
     7
370
    25
100
AcDbCircle
 10
155.1438462836
 20
73.1925013191
 30
0.0
 40
0.2999999999999843
100
AcDbArc
 50
315.0
 51
90.0
  0
LINE
  5
3BE
330
1F
100
AcDbEntity
  8
0
  6
Continuous
 62
     7
370
    25
100
AcDbLine
 10
154.9175501084
 20
72.5419410753
 30
0.0
 11
155.3559783179
 21
72.9803692848
 31
0.0
  0
LINE
  5
3BF
330
1F
100
AcDbEntity
  8
0
  6
Continuous
 62
     7
370
    25
100
AcDbLine
 10
155.4964567086
 20
71.4827400832
 30
0.0
 11
154.9175501084
 21
72.5419410753
 31
0.0
  0
ARC
  5
3C0
330
1F
100
AcDbEntity
  8
0
  6
Continuous
 62
     7
370
    25
100
AcDbCircle
 10
157.6546251527
 20
67.5340302981
 30
0.0
 40
4.500000000000015
100
AcDbArc
 50
61.3411772335
 51
118.6588227665
  0
LINE
  5
3C1
330
1F
100
AcDbEntity
  8
0
  6
Continuous
 62
     7
370
    25
100
AcDbLine
 10
160.3917001969
 20
72.5419410753
 30
0.0
 11
159.8127935967
 21
71.4827400832
 31
0.0
  0
LINE
  5
3C2
330
1F
100
AcDbEntity
  8
0
  6
Continuous
 62
     7
370
    25
100
AcDbLine
 10
159.9532719874
 20
72.9803692848
 30
0.0
 11
160.3917001969
 21
72.5419410753
 31
0.0
  0
ARC
  5
3C3
330
1F
100
AcDbEntity
  8
0
  6
Continuous
 62
     7
370
    25
100
AcDbCircle
 10
160.1654040218
 20
73.1925013191
 30
0.0
 40
0.3000000000000245
100
AcDbArc
 50
90.0
 51
225.0
  0
LINE
  5
3C4
330
1F
100
AcDbEntity
  8
0
  6
Continuous
 62
     7
370
    25
100
AcDbLine
 10
162.4780897424
 20
73.4925013191
 30
0.0
 11
160.1654040218
 21
73.4925013191
 31
0.0
  0
LINE
  5
3C5
330
1F
100
AcDbEntity
  8
0
  6
Continuous
 62
     7
370
    25
100
AcDbLine
 10
163.6130961737
 20
72.3574948878
 30
0.0
 11
162.4780897424
 21
73.4925013191
 31
0.0
  0
LINE
  5
3C6
330
1F
100
AcDbEntity
  8
0
  6
Continuous
 62
     7
370
    25
100
AcDbLine
 10
163.6130961737
 20
70.0448091672
 30
0.0
 11
163.6130961737
 21
72.3574948878
 31
0.0
  0
ARC
  5
3C7
330
1F
100
AcDbEntity
  8
0
  6
Continuous
 62
     7
370
    25
100
AcDbCircle
 10
163.3130961737
 20
70.0448091672
 30
0.0
 40
0.2999999999999843
100
AcDbArc
 50
225.0
 51
0.0
  0
LINE
  5
3C8
330
1F
100
AcDbEntity
  8
0
  6
Continuous
 62
     7
370
    25
100
AcDbLine
 10
162.6625359299
 20
70.2711053424
 30
0.0
 11
163.1009641394
 21
69.8326771328
 31
0.0
  0
LINE
  5
3C9
330
1F
100
AcDbEntity
  8
0
  6
Continuous
 62
     7
370
    25
100
AcDbLine
 10
161.6033349378
 20
69.6921987421
 30
0.0
 11
162.6625359299
 21
70.2711053424
 31
0.0
  0
ARC
  5
3CA
330
1F
100
AcDbEntity
  8
0
  6
Continuous
 62
     7
370
    25
100
AcDbCircle
 10
157.6546251527
 20
67.5340302981
 30
0.0
 40
4.500000000000015
100
AcDbArc
 50
331.3411772335
 51
28.6588227665
  0
LINE
  5
3CB
330
1F
100
AcDbEntity
  8
0
  6
Continuous
 62
     7
370
    25
100
AcDbLine
 10
162.6625359299
 20
64.7969552538
 30
0.0
 11
161.6033349378
 21
65.375861854
 31
0.0
  0
LINE
  5
3CC
330
1F
100
AcDbEntity
  8
0
  6
Continuous
 62
     7
370
    25
100
AcDbLine
 10
163.1009641394
 20
65.2353834633
 30
0.0
 11
162.6625359299
 21
64.7969552538
 31
0.0
  0
ARC
  5
3CD
330
1F
100
AcDbEntity
  8
0
  6
Continuous
 62
     7
370
    25
100
AcDbCircle
 10
163.3130961737
 20
65.023251429
 30
0.0
 40
0.3000000000000114
100
AcDbArc
 50
0.0
 51
135.0
  0
LINE
  5
3CE
330
1F
100
AcDbEntity
  8
0
  6
Continuous
 62
     7
370
    25
100
AcDbLine
 10
163.6130961737
 20
62.7105657084
 30
0.0
 11
163.6130961737
 21
65.023251429
 31
0.0
  0
LINE
  5
3CF
330
1F
100
AcDbEntity
  8
0
  6
Continuous
 62
     7
370
    25
100
AcDbLine
 10
162.4780897424
 20
61.5755592771
 30
0.0
 11
163.6130961737
 21
62.7105657084
 31
0.0
  0
LINE
  5
3D0
330
1F
100
AcDbEntity
  8
0
  6
Continuous
 62
     7
370
    25
100
AcDbLine
 10
160.1654040218
 20
61.5755592771
 30
0.0
 11
162.4780897424
 21
61.5755592771
 31
0.0
  0
ARC
  5
3D1
330
1F
100
AcDbEntity
  8
0
  6
Continuous
 62
     7
370
    25
100
AcDbCircle
 10
160.1654040218
 20
61.8755592771
 30
0.0
 40
0.3000000000000095
100
AcDbArc
 50
135.0
 51
270.0
  0
LINE
  5
3D2
330
1F
100
AcDbEntity
  8
0
  6
Continuous
 62
     7
370
    25
100
AcDbLine
 10
160.3917001969
 20
62.5261195209
 30
0.0
 11
159.9532719874
 21
62.0876913114
 31
0.0
  0
ENDSEC
  0
SECTION
  2
OBJECTS
  0
DICTIONARY
  5
C
330
0
100
AcDbDictionary
281
     1
  3
ACAD_GROUP
350
D
  3
ACAD_LAYOUT
350
1A
  3
ACAD_MLINESTYLE
350
17
  3
ACAD_PLOTSETTINGS
350
19
  3
ACAD_PLOTSTYLENAME
350
E
  3
ACAD_SCALELIST
350
47
  0
DICTIONARY
  5
D
102
{ACAD_REACTORS
330
C
102
}
330
C
100
AcDbDictionary
281
     1
  0
DICTIONARY
  5
1A
102
{ACAD_REACTORS
330
C
102
}
330
C
100
AcDbDictionary
281
     1
  3
Layout1
350
1E
  3
Layout2
350
26
  3
Model
350
22
  0
DICTIONARY
  5
17
102
{ACAD_REACTORS
330
C
102
}
330
C
100
AcDbDictionary
281
     1
  3
Standard
350
18
  0
DICTIONARY
  5
19
102
{ACAD_REACTORS
330
C
102
}
330
C
100
AcDbDictionary
281
     1
  0
ACDBDICTIONARYWDFLT
  5
E
102
{ACAD_REACTORS
330
C
102
}
330
C
100
AcDbDictionary
281
     1
  3
Normal
350
F
100
AcDbDictionaryWithDefault
340
F
  0
DICTIONARY
  5
47
102
{ACAD_REACTORS
330
C
102
}
330
C
100
AcDbDictionary
281
     1
  3
A0
350
48
  3
A1
350
49
  3
A2
350
4A
  3
A3
350
4B
  3
A4
350
4C
  3
A5
350
4D
  3
A6
350
4E
  3
A7
350
4F
  3
A8
350
50
  3
A9
350
51
  3
B0
350
52
  3
B1
350
53
  3
B2
350
54
  3
B3
350
55
  3
B4
350
56
  3
B5
350
57
  3
B6
350
58
  3
B7
350
59
  3
B8
350
5A
  3
B9
350
5B
  3
C0
350
5C
  3
C1
350
5D
  3
C2
350
5E
  3
C3
350
5F
  3
C4
350
60
  3
C5
350
61
  3
C6
350
62
  3
C7
350
63
  3
C8
350
64
  3
C9
350
65
  3
D0
350
66
  3
D1
350
67
  3
D2
350
68
  0
LAYOUT
  5
1E
102
{ACAD_REACTORS
330
1A
102
}
330
1A
100
AcDbPlotSettings
  1

  2
none_device
  4

  6

 40
0.0
 41
0.0
 42
0.0
 43
0.0
 44
0.0
 45
0.0
 46
0.0
 47
0.0
 48
0.0
 49
0.0
140
0.0
141
0.0
142
1.0
143
1.0
 70
   688
 72
     1
 73
     0
 74
     5
  7

 75
    16
147
1.0
148
0.0
149
0.0
100
AcDbLayout
  1
Layout1
 70
     1
 71
     1
 10
0.0
 20
0.0
 11
420.0
 21
297.0
 12
0.0
 22
0.0
 32
0.0
 14
1.0000000000E+20
 24
1.0000000000E+20
 34
1.0000000000E+20
 15
-1.0000000000E+20
 25
-1.0000000000E+20
 35
-1.0000000000E+20
146
0.0
 13
0.0
 23
0.0
 33
0.0
 16
1.0
 26
0.0
 36
0.0
 17
0.0
 27
1.0
 37
0.0
 76
     0
330
1B
  0
LAYOUT
  5
26
102
{ACAD_REACTORS
330
1A
102
}
330
1A
100
AcDbPlotSettings
  1

  2
none_device
  4

  6

 40
0.0
 41
0.0
 42
0.0
 43
0.0
 44
0.0
 45
0.0
 46
0.0
 47
0.0
 48
0.0
 49
0.0
140
0.0
141
0.0
142
1.0
143
1.0
 70
   688
 72
     1
 73
     0
 74
     5
  7

 75
    16
147
1.0
148
0.0
149
0.0
100
AcDbLayout
  1
Layout2
 70
     1
 71
     2
 10
0.0
 20
0.0
 11
0.0
 21
0.0
 12
0.0
 22
0.0
 32
0.0
 14
0.0
 24
0.0
 34
0.0
 15
0.0
 25
0.0
 35
0.0
146
0.0
 13
0.0
 23
0.0
 33
0.0
 16
1.0
 26
0.0
 36
0.0
 17
0.0
 27
1.0
 37
0.0
 76
     0
330
23
  0
LAYOUT
  5
22
102
{ACAD_REACTORS
330
1A
102
}
330
1A
100
AcDbPlotSettings
  1

  2
none_device
  4
ANSI_A_(11.00_x_8.50_Inches)
  6

 40
6.35
 41
19.05
 42
6.35000508
 43
19.05000254
 44
279.4
 45
215.9
 46
-4.9599526887
 47
19.7761659766
 48
0.0
 49
0.0
140
0.0
141
0.0
142
0.0604300952
143
1.0
 70
  1696
 72
     0
 73
     0
 74
     0
  7

 75
     0
147
0.0179189148
148
-1300.4909072572
149
0.0
100
AcDbLayout
  1
Model
 70
     1
 71
     0
 10
0.0
 20
0.0
 11
420.0
 21
297.0
 12
0.0
 22
0.0
 32
0.0
 14
0.0045280071
 24
-0.0119559464
 34
0.0
 15
180.2127498092
 25
90.0800165426
 35
0.0
146
0.0
 13
0.0
 23
0.0
 33
0.0
 16
1.0
 26
0.0
 36
0.0
 17
0.0
 27
1.0
 37
0.0
 76
     0
330
1F
331
29
  0
MLINESTYLE
  5
18
102
{ACAD_REACTORS
330
17
102
}
330
17
100
AcDbMlineStyle
  2
Standard
 70
     0
  3

 62
   256
 51
90.0
 52
90.0
 71
     2
 49
0.5
 62
   256
  6
BYLAYER
 49
-0.5
 62
   256
  6
BYLAYER
  0
ACDBPLACEHOLDER
  5
F
102
{ACAD_REACTORS
330
E
102
}
330
E
  0
SCALE
  5
48
102
{ACAD_REACTORS
330
47
102
}
330
47
100
AcDbScale
 70
     0
300
1:1
140
1.0
141
1.0
290
     1
  0
SCALE
  5
49
102
{ACAD_REACTORS
330
47
102
}
330
47
100
AcDbScale
 70
     0
300
1:2
140
1.0
141
2.0
290
     0
  0
SCALE
  5
4A
102
{ACAD_REACTORS
330
47
102
}
330
47
100
AcDbScale
 70
     0
300
1:4
140
1.0
141
4.0
290
     0
  0
SCALE
  5
4B
102
{ACAD_REACTORS
330
47
102
}
330
47
100
AcDbScale
 70
     0
300
1:5
140
1.0
141
5.0
290
     0
  0
SCALE
  5
4C
102
{ACAD_REACTORS
330
47
102
}
330
47
100
AcDbScale
 70
     0
300
1:8
140
1.0
141
8.0
290
     0
  0
SCALE
  5
4D
102
{ACAD_REACTORS
330
47
102
}
330
47
100
AcDbScale
 70
     0
300
1:10
140
1.0
141
10.0
290
     0
  0
SCALE
  5
4E
102
{ACAD_REACTORS
330
47
102
}
330
47
100
AcDbScale
 70
     0
300
1:16
140
1.0
141
16.0
290
     0
  0
SCALE
  5
4F
102
{ACAD_REACTORS
330
47
102
}
330
47
100
AcDbScale
 70
     0
300
1:20
140
1.0
141
20.0
290
     0
  0
SCALE
  5
50
102
{ACAD_REACTORS
330
47
102
}
330
47
100
AcDbScale
 70
     0
300
1:30
140
1.0
141
30.0
290
     0
  0
SCALE
  5
51
102
{ACAD_REACTORS
330
47
102
}
330
47
100
AcDbScale
 70
     0
300
1:40
140
1.0
141
40.0
290
     0
  0
SCALE
  5
52
102
{ACAD_REACTORS
330
47
102
}
330
47
100
AcDbScale
 70
     0
300
1:50
140
1.0
141
50.0
290
     0
  0
SCALE
  5
53
102
{ACAD_REACTORS
330
47
102
}
330
47
100
AcDbScale
 70
     0
300
1:100
140
1.0
141
100.0
290
     0
  0
SCALE
  5
54
102
{ACAD_REACTORS
330
47
102
}
330
47
100
AcDbScale
 70
     0
300
2:1
140
2.0
141
1.0
290
     0
  0
SCALE
  5
55
102
{ACAD_REACTORS
330
47
102
}
330
47
100
AcDbScale
 70
     0
300
4:1
140
4.0
141
1.0
290
     0
  0
SCALE
  5
56
102
{ACAD_REACTORS
330
47
102
}
330
47
100
AcDbScale
 70
     0
300
8:1
140
8.0
141
1.0
290
     0
  0
SCALE
  5
57
102
{ACAD_REACTORS
330
47
102
}
330
47
100
AcDbScale
 70
     0
300
10:1
140
10.0
141
1.0
290
     0
  0
SCALE
  5
58
102
{ACAD_REACTORS
330
47
102
}
330
47
100
AcDbScale
 70
     0
300
100:1
140
100.0
141
1.0
290
     0
  0
SCALE
  5
59
102
{ACAD_REACTORS
330
47
102
}
330
47
100
AcDbScale
 70
     0
300
1/128" = 1'-0"
140
0.0078125
141
12.0
290
     0
  0
SCALE
  5
5A
102
{ACAD_REACTORS
330
47
102
}
330
47
100
AcDbScale
 70
     0
300
1/64" = 1'-0"
140
0.015625
141
12.0
290
     0
  0
SCALE
  5
5B
102
{ACAD_REACTORS
330
47
102
}
330
47
100
AcDbScale
 70
     0
300
1/32" = 1'-0"
140
0.03125
141
12.0
290
     0
  0
SCALE
  5
5C
102
{ACAD_REACTORS
330
47
102
}
330
47
100
AcDbScale
 70
     0
300
1/16" = 1'-0"
140
0.0625
141
12.0
290
     0
  0
SCALE
  5
5D
102
{ACAD_REACTORS
330
47
102
}
330
47
100
AcDbScale
 70
     0
300
3/32" = 1'-0"
140
0.09375
141
12.0
290
     0
  0
SCALE
  5
5E
102
{ACAD_REACTORS
330
47
102
}
330
47
100
AcDbScale
 70
     0
300
1/8" = 1'-0"
140
0.125
141
12.0
290
     0
  0
SCALE
  5
5F
102
{ACAD_REACTORS
330
47
102
}
330
47
100
AcDbScale
 70
     0
300
3/16" = 1'-0"
140
0.1875
141
12.0
290
     0
  0
SCALE
  5
60
102
{ACAD_REACTORS
330
47
102
}
330
47
100
AcDbScale
 70
     0
300
1/4" = 1'-0"
140
0.25
141
12.0
290
     0
  0
SCALE
  5
61
102
{ACAD_REACTORS
330
47
102
}
330
47
100
AcDbScale
 70
     0
300
3/8" = 1'-0"
140
0.375
141
12.0
290
     0
  0
SCALE
  5
62
102
{ACAD_REACTORS
330
47
102
}
330
47
100
AcDbScale
 70
     0
300
1/2" = 1'-0"
140
0.5
141
12.0
290
     0
  0
SCALE
  5
63
102
{ACAD_REACTORS
330
47
102
}
330
47
100
AcDbScale
 70
     0
300
3/4" = 1'-0"
140
0.75
141
12.0
290
     0
  0
SCALE
  5
64
102
{ACAD_REACTORS
330
47
102
}
330
47
100
AcDbScale
 70
     0
300
1" = 1'-0"
140
1.0
141
12.0
290
     0
  0
SCALE
  5
65
102
{ACAD_REACTORS
330
47
102
}
330
47
100
AcDbScale
 70
     0
300
1-1/2" = 1'-0"
140
1.5
141
12.0
290
     0
  0
SCALE
  5
66
102
{ACAD_REACTORS
330
47
102
}
330
47
100
AcDbScale
 70
     0
300
3" = 1'-0"
140
3.0
141
12.0
290
     0
  0
SCALE
  5
67
102
{ACAD_REACTORS
330
47
102
}
330
47
100
AcDbScale
 70
     0
300
6" = 1'-0"
140
6.0
141
12.0
290
     0
  0
SCALE
  5
68
102
{ACAD_REACTORS
330
47
102
}
330
47
100
AcDbScale
 70
     0
300
1'-0" = 1'-0"
140
12.0
141
12.0
290
     0
  0
ENDSEC
  0
EOF
